Cifra da música: Como tem que ser - Restart

Esse cifra de Restart já foi acessado por 1196 pessoas.

Comente

A música Como tem que ser fez muito sucesso quando foi gravada por Restart. Quer conhecer a letra dela? Veja a letra de Como tem que ser e cante.

Veja também o vídeo da música tocada.


( B  E  G#m  E  F# )
Não vou, não vou mais deixar você partir
Pois vejo, estou cada vez melhor
Eu sei que é tarde mas não vamos dormir
Vem aqui e eu te mostro como tem que ser

(riff)
E|------------------------------------------------
B|------------------------------------------------
G|------------------------------------------------
D|-----4-4---0-----2-1-2-1-----4-4---0-------1-2-1
A|-2-2-----2-----------------------2-------6------
E|-------------0-0---------4-4---------0-0--------

( B  F#  E  F# )
E a noite vem mais uma vez me dizer
Que a vida é feita pra se aproveitar e aprender
E o que passou melhor deixar pra trás
As velhas mágoas não importam mais

( G#m  E  B  F# ) ( E  F#  C#m  D#m  E )
Eu quero mais daquilo que a gente chama de amor
Um pouco mais de tudo que ainda não passou
Todos os planos que eu fiz pra mim
Eu vou até o fim para realizar com você

( B  E  G#m  E  F# )
Não vou, não vou mais deixar você partir
Pois vejo, estou cada vez melhor
Eu sei que é tarde mas não vamos dormir
Vem aqui e eu te mostro como tem que ser

(riff)
E|------------------------------------------------
B|------------------------------------------------
G|------------------------------------------------
D|-----4-4---0-----2-1-2-1-----4-4---0-------1-2-1
A|-2-2-----2-----------------------2-------6------
E|-------------0-0---------4-4---------0-0--------

( B  F#  E  F# )
E a noite vem mais uma vez me dizer
Que a vida é feita pra se aproveitar e aprender
E o que passou melhor deixar pra trás
As velhas mágoas não importam mais

( G#m  E  B  F# ) ( E  F#  C#m  D#m  E )
Eu quero mais daquilo que a gente chama de amor
Um pouco mais de tudo que ainda não passou
Todos os planos que eu fiz pra mim
Eu vou até o fim para realizar com você

( B  E  G#m  E  F# )
Não vou, não vou mais deixar você partir
Pois vejo, estou cada vez melhor
Eu sei que é tarde mas não vamos dormir
Vem aqui e eu te mostro como tem que ser

( B  F#  E  F# )


Quer fazer uma correção nesta cifra?








    Comentários (0) Postar um Comentário

    Nenhum comentário encontrado. Seja o primeiro!