Cifra da música: Eu Pedi Você - Restart

Esse cifra de Restart já foi acessado por 875 pessoas.

Comente

A música Eu Pedi Você fez muito sucesso quando foi gravada por Restart. Quer conhecer a letra dela? Veja a letra de Eu Pedi Você e cante.

Veja também o vídeo da música tocada.


(intro 4x) B5 B5/G# B5 B5/F#

E|---------------------------------
B|---------------------------------
G|-----4-6-4--------4-6-6/8-6h4-6--     (4x)
D|-4h6-------6-4h6-----------------
A|---------------------------------
E|---------------------------------

B5      B5/G#
Mais um ano vem
B5        B5/F#      B5    B5/G#
E se eu pudesse pedir, eu diria assim:
B5     B5/F#       B5            B5/G#
Pra manter o teu sorriso e o teu olhar
B5     B5/F#             B5       B5/G#   B5
Em qualquer lugar que eu possa enxergar
B5/F#
Aonde eu for

  (base solo 2x) B5 B5/G# B5 B5/F#
E|---------------------------------------------------------------------
B|---------------------------------------------------------------------
G|------4-6-6/8-6h4-6-4----4-6/8—6h4------4-6-6/8-6h4-6—4-6/8-8h10-8/6-
D|-4h6-----------------4h6------------4h6------------------------------
A|---------------------------------------------------------------------
E|---------------------------------------------------------------------

B5    B5/G#
É que ouvi dizer
B5     B5/F#
Que em noites assim
B5   B5/G#  B5  B5/F#
Tudo pode acontecer
B5   B5/G#     B5   B5/F#
Um momento bom, o teu cheiro em mim
B5    B5/G#           B5        B5/F#         B5/G# - B5/F# - A9
faz lembrar de tudo o que eu quero fazer...    êêêê...
         C#5              E5                 B5   F#5
e eu não vou (eu não vou) dizer que tudo foi em vão (em vão)
         C#5                     E5
Pois de todas as coisas que eu pedi no Natal
         B5                            C#5         A9
Você é aquela que eu mais quero ter em minhas mãos

 (base 2x) B5 B5/G# B5 B5/F#

E|---------------------------------
B|---------------------------------
G|-----4-6-4--------4-6-6/8-6h4-6--     (2x)
D|-4h6-------6-4h6-----------------
A|---------------------------------
E|---------------------------------

B5      B5/G#
Mais um ano vem
B5        B5/F#      B5    B5/G#
E se eu pudesse pedir, eu diria assim:
B5     B5/F#       B5            B5/G#
Pra manter o teu sorriso e o teu olhar
B5     B5/F#             B5       B5/G#   B5
Em qualquer lugar que eu possa enxergar
B5/F#
Aonde eu for... Aonde eu for...

  (base solo 2x) B5 B5/G# B5 B5/F#
E|---------------------------------------------------------------------
B|---------------------------------------------------------------------
G|------4-6-6/8-6h4-6-4----4-6/8—6h4------4-6-6/8-6h4-6—4-6/8-8h10-8/6-
D|-4h6-----------------4h6------------4h6------------------------------
A|---------------------------------------------------------------------
E|---------------------------------------------------------------------

B5    B5/G#
É que ouvi dizer
B5     B5/F#
Que em noites assim
B5   B5/G#  B5  B5/F#
Tudo pode acontecer
B5   B5/G#     B5   B5/F#
Um momento bom, o teu cheiro em mim
B5    B5/G#           B5        B5/F#         B5/G# - B5/F# - A9
faz lembrar de tudo o que eu quero fazer...    êêêê...
         C#5              E5                 B5   F#5
e eu não vou (eu não vou) dizer que tudo foi em vão (em vão)
         C#5                     E5
Pois de todas as coisas que eu pedi no Natal
         B5                            C#5         A9
Você é aquela que eu mais quero ter em minhas mãos

(vocalização 4x) B5 B5/G# B5 B5/F#

*(tocar bem suave, back vocal repete todo o refrão)

         C#5   E5                 B5   F#5
E eu não vou dizer que tudo foi em vão
         C#5                     E5
Pois de todas as coisas que eu pedi no Natal
         B5                            C#5         A9
Você é aquela que eu mais quero ter em minhas mãos

*(back vocal canta a vocalização)

         C#5              E5                 B5   F#5
e eu não vou (eu não vou) dizer que tudo foi em vão (em vão)
         C#5                     E5
Pois de todas as coisas que eu pedi no Natal
         B5                            F#5
Você é aquela que eu mais quero ter em minhas mãos
         C#5              E5                 B5   F#5
e eu não vou (eu não vou) dizer que tudo foi em vão (em vão)
         C#5                     E5
Pois de todas as coisas que eu ganhei no Natal
         B5                            C#5         A9
Você é aquela que eu mais quero ter em minhas mãos

(vocalização e solo)

B5 B5/G# B5 B5/F# (até o fim da música)
E|---------------------------------------------------------------------
B|---------------------------------------------------------------------
G|------4-6-6/8-6h4-6-4----4-6/8—6h4------4-6-6/8-6h4-6—4-6/8-8h10-8/6-
D|-4h6-----------------4h6------------4h6------------------------------
A|---------------------------------------------------------------------
E|---------------------------------------------------------------------


Quer fazer uma correção nesta cifra?








    Comentários (1) Postar um Comentário

    Karol comentou:

    Gosto muito da banda restart só tem gostoso me liga