Cifra da música: Medo da Chuva - Raul Seixas

Esse cifra de Raul Seixas já foi acessado por 2662 pessoas.

1.00 / 5 - 3
Comente

A música Medo da Chuva fez muito sucesso quando foi gravada por Raul Seixas. Quer conhecer a letra dela? Veja a letra de Medo da Chuva e cante.

Veja também o vídeo da música tocada.


Tom: D
                                              D        G 

E||--4/5--5-5--0-0-0--2-2/3--3-3-3--2--0--|-2---2--|---3----||
B||---------------------------------------|----3---|---3----||
G||---------------------------------------|---2----|---4----||
D||--6/7--7-7--2-2-2--4-4/5--5-5-5--4--2--|-0------|--------||
A||---------------------------------------|--------|--------||
E||---------------------------------------|--------|---3----||

                  ou

E||--4/5--5-5--------------------------------|
B||------------5-5-5--7/8-8-8--8-8-7/5-5-----|
G||--------------------------------------7---|
D||------------------------------------------|
A||------------------------------------------|
E||------------------------------------------|

     F#m     A7       D 
    
E||---2---|---0---|---2---|
B||---2---|---2---|---3---|
G||---2---|---0---|---2---|
D||-------|-------|---0---|
A||-------|---0---|-------|
E||---2---|-------|-------|

Raul Seixas - - Medo da Chuva 
Tom: D
 

A7/4 - A7 – D G D
 
      D
   É pena
Que você pense que eu sou
    A7/4   A7
seu escravo

Dizendo que eu sou seu marido
	        D
E não posso partir
	 G
Como as pedras imóveis na praia
	        D	  Bm
Eu fico ao teu lado sem saber
     A7/4 		  A7
Dos amores que a vida me trouxe
	      D       D7
E não pude viver
       G
Eu perdi o meu medo
		        D    D4  D
Meu medo, meu medo da chuva
         G
Pois a chuva voltando pra terra
	       D   D4  D
Traz coisas do ar
     G
Aprendi o segredo
			D    D4  D
O segredo, o segredo da vida
	 A7/4
Vendo as pedras que choram
   A7		   D
sozinhas no mesmo lugar

       D
E não posso entender
			    A7/4   A7
Tanta gente aceitando a mentira
           
De que os sonhos desfazem
  		     D
Aquilo que o padre falou
       G
Porque quando eu jurei
		        D
Meu amor eu traí a mim mesmo
	Bm	   A7/4
Hoje eu sei que ninguém nesse mundo
   A7
É feliz tendo amado uma vez
    D   D7
Uma vez
      G
Eu perdi o meu medo
		        D     D4  D
Meu medo, meu medo da chuva
       G
Pois a chuva voltando pra terra
	       D   D4  D
Traz coisas do ar
     G
Aprendi o segredo
			D    D4  D
O segredo, o segredo da vida
	 A7/4
Vendo as pedras que choram
   A7		   D
sozinhas no mesmo lugar
	 A7/4
Vendo as pedras que choram
   A7		   D
sozinhas no mesmo lugar
	 A7/4
Vendo as pedras que SONHAM
   A7		   G      A#   D
sozinhas no mesmo lugar


Solo -> (final da música)                   D


D

E||----------------------------------------|---2---||
B||------------3-3----3^4-3------------3---|---3---||
G||------0-2/4-----4--------4/2-0-2/4------|---2---||
D||--0-2-----------------------------------|---0---||
A||----------------------------------------|-------||
E||----------------------------------------|-------||


________________________________________
Enviada por Kdu (Cobain_) Cdudu@zipmail.com.br








Quer fazer uma correção nesta cifra?








    Comentários (1) Postar um Comentário

    Andreia de souza oliveira comentou:

    Cool.