Cifra da música: Canceriano Sem Lar - Raul Seixas

Esse cifra de Raul Seixas já foi acessado por 1906 pessoas.

Comente

A música Canceriano Sem Lar fez muito sucesso quando foi gravada por Raul Seixas. Quer conhecer as demais músicas? Conheça as letras das músicas gravadas por Raul Seixas e aproveite.

Veja também o vídeo da música tocada.


Intro: D7 

  D7 
 Estou sentado em minha cama 
 Tomando meu café prá fumar 
        G 
 Estou sentado em minha cama 
 Tomando meu café prá fumar 
           A 
 Trancado dentro de mim mesmo 
          G                  D7 (A7) 
 Eu sou um canceriano sem lar 
 D7 
 Estou sentado em minha cama 
 Tomando meu café prá fumar 
      G 
 Estou sentado em minha cama 
 Tomando meu café prá fumar 
      A 
É, é, porém, mas, todavia 
        G                  D7 (A7) 
Eu sou um canceriano sem lar 
D7 
Eu tomo café pra mim não chorar 
Pergunto à nuvem preta qunado o sol vai brilhar 
G 
Estou deitado em minha vida 
                          D7 
E o soro que me induz a lutar 
A 
Estou na Clínica Tobias 
     G 
Tão longe do aconchego do lar 
( D G ) (D G) ( A G D) 
All right, man 
Play the blues 
Clínica Tobias Blues 







Tablatura
=========

Segredo do Universo

Música : canceriano sem lar

   
      
         
       


--------------------------------------------------------------------------------
CANCERIANO SEM LAR
(RAUL SEIXAS)

(INTRO)
[--------------------------------------------------]
[----------13----15b---15b----15s13-----13-13--15--]
[----12/14----14--------------------14-------------]
[--------------------------------------------------]
[--------------------------------------------------]
[--------------------------------------------------]

[--13b--13-13-13--------------13b-13------------11---8-----8--10-]
[----------------13-13-13------------13-13-13----------10--------]
[----------------------------------------------------------------]
[----------------------------------------------------------------]
[----------------------------------------------------------------]
[----------------------------------------------------------------]

[--------------------------------------------------8---------------------]
[--11b-11---8------------------------------------8----10--8--------------]
[-------------10---11b-11b-11b--10~~----------8/9-------------9b---------]
[-----------------------------------10-10--------------------------10----]
[------------------------------------------------------------------------]
[------------------------------------------------------------------------]





Quer fazer uma correção nesta cifra?







    Comentários (0) Postar um Comentário

    Nenhum comentário encontrado. Seja o primeiro!