Cifra da música: Under The Tree - Raôni Soares

Esse cifra de Raôni Soares já foi acessado por 103 pessoas.

Comente

Tom: C

Intro: Am Dm7/C Dm7/G F


E|-------------------------------------------------|
B|--1-----3-----1----3-----1-----3-----1-----3-----|
G|----2-----2-----2----2-----2-----2-----2-----2---|
D|------2-----2-----2----2-----0-----0-----0-----0-|
A|--0-----------0----------3-----------3-----------|
E|-------------------------------------------------|


E|-------------------------------------------------|
B|-1-----3-----1-----3----1-----3-----1-----3------|
G|---2-----2-----2-----2----2-----2-----2-----2----|
D|-----0-----0-----0----3-----3-----3-----3-----3--|
A|-------------------------------------------------|
E|-3-----------3----------1-----------1------------|


Am   Dm7/C    	     Dm7/G F
I´m looking at the horizon
Am   Dm7/C		 Dm7/G F
I´m under the tree of the life
Am 	    Dm7/C 	  Dm7/G F
Looking for answer for all questions
Am 	   Dm7/C 	Dm7/G F
That I did during all my childhood

( Am Dm7/C Dm7/G F )

Am    Dm7/C Dm7/G F
Now I am a new man
  Am 	Dm7/C 	  Dm7/G F
Inside this battle field
Am 	       Dm7/C Dm7/G F
Looing for the thuth every day
Am 	      Dm7/C 	Dm7/G F
Fighting to believe im myself again

( Am/C G/B F/A )

Am/C    G/B F/A
Know myself again
Am/C    G/B 	F/A
Know myself this time
Am         F
Let me fight
Am      F
Let me now 
Am 	G       F
Let me fight again
Am         F
Let me burn
Am      F
Let me die
Am 		G       F
To rebirth in another land

Quer fazer uma correção nesta cifra?







    Comentários (0) Postar um Comentário

    Nenhum comentário encontrado. Seja o primeiro!