Cifra da música: Game Of Thrones - Ramin Djawadi

Esse cifra de Ramin Djawadi já foi acessado por 138 pessoas.

Comente

Veja também o vídeo da música tocada.


Tom: F

Intro: C5


E|--------------------------------------|
B|--------------------------------------|
G|---------0--------0--------0--------0-|
D|-----1h3------1h3------1h3------1h3---|
A|-3-3--------3--------3--------3-------|
E|--------------------------------------|


E|--------------------------------|
B|--------------------------------|
G|-------0--------0--------0------|
D|---2h3------2h3------2h3------2-|
A|-3--------3--------3--------3---|
E|--------------------------------|


Tema Principal:


E|--------------------|
B|--------------------|
G|---------0----------|
D|-5---1h3------1h3-0-|
A|---3--------3-------|
E|--------------------|


E|--------------------------------|
B|--------------------------------|
G|-------0--------0--------0------|
D|---1h3------1h3------1h3------1-|
A|-3--------3--------3--------3---|
E|--------------------------------|


E|--------------------|
B|--------------------|
G|--------------------|
D|-3---1p0-3----1p0---|
A|---1--------1-----3-|
E|--------------------|


E|--------------------------------|
B|--------------------------------|
G|-------0--------0--------0------|
D|---1h3------1h3------1h3------1-|
A|-3--------3--------3--------3---|
E|--------------------------------|


Uma Oitava Acima:


E|--------------------|
B|-8---4h6-8----4h6-3-|
G|---5--------5-------|
D|--------------------|
A|--------------------|
E|--------------------|


E|--------------------------------|
B|--------------------------------|
G|-------0--------0--------0------|
D|---1h3------1h3------1h3------1-|
A|-3--------3--------3--------3---|
E|--------------------------------|


E|-1-------1----------|
B|-----4\3------4\3---|
G|---3--------3-----5-|
D|--------------------|
A|--------------------|
E|--------------------|


E|--------------------------------|
B|--------------------------------|
G|-------0--------0--------0------|
D|---1h3------1h3------1h3------1-|
A|-3--------3--------3--------3---|
E|--------------------------------|


Mais Uma Oitava Acima:


E|-15----11h13-15-----11h13-10-|
B|----13-----------13----------|
G|-----------------------------|
D|-----------------------------|
A|-----------------------------|
E|-----------------------------|


E|--------------------------------|
B|--------------------------------|
G|-------0--------0--------0------|
D|---1h3------1h3------1h3------1-|
A|-3--------3--------3--------3---|
E|--------------------------------|


E|-13----11----10---8-|
B|----11----10----8---|
G|--------------------|
D|--------------------|
A|--------------------|
E|--------------------|


E|--------------------------------|
B|--------------------------------|
G|-------0--------0--------0------|
D|---1h3------1h3------1h3------1-|
A|-3--------3--------3--------3---|
E|--------------------------------|



Refrão:


E|-8---6---4---3-----------------|
B|-----------------4-------------|
G|-------------------------------|
D|-------------------------------|
A|---------------------6---5---3-|
E|-------------------------------|


E|--------------------------------|
B|--------------------------------|
G|-------0--------0--------0------|
D|---1h3------1h3------1h3------1-|
A|-3--------3--------3--------3---|
E|--------------------------------|


E|-8---6---4---3-----------------|
B|-----------------4-------------|
G|-------------------------------|
D|-------------------------------|
A|---------------------6---5---3-|
E|-------------------------------|


E|--------------------------------------|
B|--------------------------------------|
G|---------0--------0--------0--------0-|
D|-----1h3------1h3------1h3------1h3---|
A|-3-3--------3--------3--------3-------|
E|--------------------------------------|


E|--------------------------------|
B|--------------------------------|
G|-------0--------0--------0------|
D|---2h3------2h3------2h3------2-|
A|-3--------3--------3--------3---|
E|--------------------------------|


Quer fazer uma correção nesta cifra?







    Comentários (0) Postar um Comentário

    Nenhum comentário encontrado. Seja o primeiro!