Cifra da música: High Hopes - Pink Floyd

Esse cifra de Pink Floyd já foi acessado por 1584 pessoas.

Comente

A música High Hopes fez muito sucesso quando foi gravada por Pink Floyd. Quer conhecer a letra dela? Veja a letra de High Hopes e cante.

Veja também o vídeo da música tocada.


Tom: Cm

Intro (piano) [4x]

   C5          Ab5           Bb5
e|-15--15------18--18-------11--11-------------------------|
B|-13--13------16--16-------9---9--------------------------|
G|---------------------------------------------------------|
D|---------------------------------------------------------|
A|---------------------------------------------------------|
E|---------------------------------------------------------|

-------------------------------------------------------------

Versos (piano) - dedilhe como preferir:
   Cm         Cm7          Ab
e|-3----3-----6----6---------------------------------------|
B|------------4----4-------4----4--------------------------|
G|-5----5-----5------------5-------5------[4x]-------------|
D|-------------------------6----6--------------------------|
A|---------3----------3------------------------------------|
E|---------------------------------------------------------|

------------------------------------------------------------

Versos (3as estrofes)

  Cm     Bb/Ab  Ab/G  G      Cm   Bb/Ab Ab/G  G         
  (Violão 1)
e|-------------|-----------|-----------|--------------|
B|--4--4--3--3-|1--1--0----|4--4--3--3-|1--1--0-------|
G|--5--5--3--3-|1--1--0----|5--5--3--3-|1--1--0-------|
D|-------------|-----------|-----------|--------------|
A|--3----------|---------2-|3----------|--------------|
E|--------4----|3-----3----|------4----|3-----3--3----|

   (Violão 2)                 
D|--5-----6-------3-----3-|----------------|------------|---|
A|--3--3------------------|----5--5------2-|3-----3-----|---|
E|----------------4--4----|-3--------------|--------6-4-|-3-|

   (Piano)
   Ab    Bb     Gsus4 G       Ab    Bb     G     G7
e|------------|----------3--|------------|-------------|
B|-4--4--3--3-|-1--1--0--0--|-4--4--3--3-|-1--1--0-----|
G|------------|-0--------0--|------------|-0-----------|
D|-5--6--3--3-|----0--0-----|-5--6--3--3-|----0--3-----|

-----------------------------------------------------------

Refrão:

(Piano / Violão 1) --> Encerrar em Ab (1a vez) e em Gm (2a vez)
     Cm          Gm             Ab          Bb           
E||--------------------------|--------------------------|
B||--------4-----------3-----|--------------------------|
G||--------5--5--------3-----|--------5-----------7-----|
D||-----5--5-----------5--5--|--------6--6--------8--8--|
A||--3--------------5--------|-----6--6--------8--8-----|
E||--------------3-----------|--4-----------6-----------|


  Cm          Eb             Fm             Ab (1a vez)  Gm (2a vez)          
--------------------------|--------------||-------------|------------||
--------4-----------4-----|--------1-----||-------------|------------||
--------5--5--------3-----|--------1-----||--------5----|-------3----||
-----5-----------3--5--5--|--------3--3--||--------6--6-|-------5----||
--3-----------6-----------|-----3--------||-----6--6----|----5--5----||
--------------------------|--1-----------||--4----------|-3----------||


(Violão 2)
                                                                                                
D|---------------|-------------------|-----------------|-3-----3-5---||
A|-3----3--------|-------------------|-3----3-5-6----6-|-------------||
E|--------3----3-|-4------4-6------6-|-----------------|-------------||

-----------------------------------------------------------

Verso 1:           
	Beyond the horizon of the place we lived when we were young
	In a world of magnets and miracles
	Our troughts strayed constandly and without boundary
	The ringing of the division bell had begin

	Along the long road and on down the causeway
	Do they still meet there by the cut

Verso 2:
	There was a ragged band that followed in our footsteps
	Running before time took our dreams away
	Leaving the myriad small creatures trying to tie us to the ground
	To a life consumed by slow decay

Refrão:
	The grass was greener
	The light was brighter
	With friends surrounded
	The night of wonder

Verso 3:
	Looking beyond the embers of bridges glowing behind us
	To a glimpse of how green it was on the other side
	Steps taken forwards but sleepwalking back again
	Dragged by the force of some inner tide

	At a higher altitude with flag unfuried
	We reached the dizzy heights of that dreamed of world

-----------------------------------------------------------------

Ponte:


Violão:

     Em                                         F                        
E|-----------------------|-------------------|----------------------|
B|-----------------------|-------------------|----------------------|
G|-----------------------|-------------------|----------------------|
D|-2------2/4-4------4/5-|--5------5/-9----9-|--7------7-9-10-7-9-5-|
A|-----------------------|-------------------|----------------------|
E|-----------------------|-------------------|----------------------|

                           Em                                           
-------------------------|---------------------|--------------------|
-------------------------|---------------------|--------------------|
-------------------------|---------------------|--------------------|
--7----7h9h7-5h7h5-3h5h3-|--2-----2/4-4----4-5-|--5----5/-9----9----|
-------------------------|---------------------|--------------------|
-------------------------|---------------------|--------------------|

  F                                            Em                     
-----------------|--------------------------|------------------------|
-----------------|--------------------------|------------------------|
-----------------|--------------------------|------------------------|
--9------5--7----|--7--10--9/-12---10h9-7---|--2------2/4-4------4/5-|
-----------------|--------------------------|------------------------|
-----------------|--------------------------|------------------------|

                         F                                              
----------------------|-------------------------|--------------------|
----------------------|-------------------------|--------------------|
----------------------|-------------------------|--------------------|
--5------5/-9----9----|--7------7-10-9------5-9-|--7------5-7-9------|
----------------------|-------------------------|--------------------|
----------------------|-------------------------|--------------------|

  Em                                              F                   
------------------------|----------------------|---------------------|
------------------------|----------------------|---------------------|
------------------------|----------------------|---------------------|
--2------2/4-4------4-5-|--5------5/-9----9----|--9------5--7--------|
------------------------|----------------------|---------------------|
------------------------|----------------------|---------------------|

                    G               
----------------------------------||
----------------------------------||
----------------------------------||
--7/-5--3--2--3-----2-------------||
-----------------5-----3----------||
--------------------------5--3----||

-----------------------------------------------------------------

Verso 4:
	Eneumbered forever by desire and ambition
	There’s a hunger still unsatisfied
	Our weary eyes still stray to the horizon
	Though down this road we’ve been so many time

Refrão (x2):
	The grass was greener
	The light was brighter
	The taste was sweeter
	The nights of wonder
	With friends surrounded
	The dawn mist glowing
	The water flowing
	The endless river
	Forever and ever

--> Solo de Guitarra Havaiana

Base igual a do Refrão: Cm Gm | Ab Bb | Cm Eb | Fm Ab | ...



Quer fazer uma correção nesta cifra?







    Comentários (0) Postar um Comentário

    Nenhum comentário encontrado. Seja o primeiro!