Cifra da música: Sorria, Você Está Sendo Filmado - Pato Fu

Esse cifra de Pato Fu já foi acessado por 393 pessoas.

Comente

A música Sorria, Você Está Sendo Filmado fez muito sucesso quando foi gravada por Pato Fu. Quer conhecer a letra dela? Veja a letra de Sorria, Você Está Sendo Filmado e cante.

Veja também o vídeo da música tocada.


      h - hammer on
      b - bend string up
      r - release bend
      / - slide up
  
Solo da introdução e instrumental. Na intro, somente a primeira parte é tocada.

 
Primeira parte:
  
E----------------------------------------------------------------
B------------------3-4-3-----------------------------------------
G------3-3/5---3-5-------5-3---3-3-----------3-3-----------------
D--3-5-------3---------------5-----5-----3h5-----5---------------
A------------------------------------3/5-------------------------
E----------------------------------------------------------------
  
Segunda parte:
  
E----------------------------3-----------------------------------
B--------------------3-4-3--------11-11----------11-11-10--------
G--5b7r5-3-3/5---3-5-------5---12-------12----12-----------------
D--------------3---------------------------12--------------------
A----------------------------------------------------------------
E----------------------------------------------------------------
  
  
Passagem instrumental:
  
E----------------------------------------------------------------
B----------------------------------------------------------------
G----------------------------------------------------------------
D------3/5-----------------3/5-----------------------------------
A----------3-3-3-1-0-----------3-3-3-1-0-------------------------
E--1/3---------------1-1/3---------------1-1/3-------------------

Intro: Cm F Bb D Gm Cm D Gm

Gm              Cm      F
Acordo em meu sono bom
              Bb D Gm
Preparo meu café
                  Cm
Passo vida em meu pão
D                Gm
Saúde ferve no fogão
                   Cm
Dou partida em meu sonho
F                Bb D Gm
Cheiro a pura emoção
              Cm     D
E a fumaça do sucesso
                   Gm   G
Já está em cada pulmão

       Cm
Ligo a tv
F                Bb D  
Boto o rádio pra tocar
Gm
Fecho os olhos 
  Cm                  D
E uso o assento da poltrona
         Gm
Pra flutuar

Fecho os olhos 
  Cm                  D      D7  
E uso o assento da poltrona

Gm Cm D
Gm Cm D

Gm                   Cm    F
E mais tarde com os amigos
               Bb  D Gm
Bebo sempre alegria
              Cm
Asas pra ir embora
D                 Gm   Cm  D  Gm  G
Sorriso no fim do dia




Quer fazer uma correção nesta cifra?







    Comentários (0) Postar um Comentário

    Nenhum comentário encontrado. Seja o primeiro!