Cifra da música: Canção Pra Você Viver Mais - Pato Fu

Esse cifra de Pato Fu já foi acessado por 1621 pessoas.

Comente

A música Canção Pra Você Viver Mais fez muito sucesso quando foi gravada por Pato Fu. Quer conhecer a letra dela? Veja a letra de Canção Pra Você Viver Mais e cante.

Veja também o vídeo da música tocada.


Intro:

  e|--0--0--2---2-------0--0--2---2-------0--0--2---2-----------5--|
  B|--3--3--3---3-------3--3--3---3-------3--3--3---3-----------3--|
  G|--2--2--2---2-------1--1--1---1-------0--0--0---0-----------2--|
  D|--0--0--0---0-------0--0--0---0-------0--0--0---0-----------0--|
  A|---------------------------------------------------------------|
  E|---------------------------------------------------------------|

  e|--0--0--2---2-------0--0--2---2-------0--0--2---2-----------2-------|
  B|--3--3--3---3-------3--3--3---3-------3--3--3---3------------3------|
  G|--2--2--2---2-------1--1--1---1-------0--0--0---0-------------2-----|
  D|--0--0--0---0-------0--0--0---0-------0--0--0---0--------------0----|
  A|--------------------------------------------------------------------|
  E|--------------------------------------------------------------------|


D	     A  Bm	   F#m
  Nunca pensei, um dia chegar,
G	     D		    A  
  te ouvir dizer, não é por mal,
		  D		  G		     A
  mas vou te fazer chorar, hoje vou te fazer chorar.

D  		 A     Bm		      F#m
  Não tenho muito tempo, tenho medo de ser um só,
G			D  		      A	
  tenho medo de ser só um, alguém pra se lembrar,
  		 D    		     G		C  A
  alguém pra se lembrar, alguém pra se lembrar.
  
  D			  E	|
  	Faz um tempo eu quis,   |
  		       G	|  [Refrão]:
  	fazer uma canção, 	|     2x
  			D	|
  	pra você viver mais.	|
  
  
  [Pequena pausa]

D	    A	  Bm   	     F#m
  Deixei que tudo, desaparecece,
G  	     D			    A
  perto do fim, não pude mais encontrar,
  		  D		   G		  C  A
  o amor ainda estava lá, o amor ainda estava lá.
  
  
  [Refrão]: 4x

  Segue notas do refrão até o fim


======
NOTAS:
======

      D	    A	 Bm    F#m    G     C     E
  e|--3--|--0--|--2--|--2--|--3--|--0--|--0--|
  B|--3--|--3--|--3--|--2--|--3--|--1--|--0--|
  G|--2--|--3--|--4--|--2--|--4--|--0--|--1--|
  D|--0--|--3--|--4--|--4--|--5--|--2--|--2--|
  A|-----|--0--|--2--|--4--|--5--|--3--|--2--|
  E|-----|-----|--2--|--2--|--3--|--0--|--0--|



Cifrado por DANIEL KRUG - 2002, [email protected]


Quer fazer uma correção nesta cifra?







    Comentários (0) Postar um Comentário

    Nenhum comentário encontrado. Seja o primeiro!