Cifra da música: Rotomusic de Liquidificapum - Pato Fu

Esse cifra de Pato Fu já foi acessado por 387 pessoas.

Comente

A música Rotomusic de Liquidificapum fez muito sucesso quando foi gravada por Pato Fu. Quer conhecer a letra dela? Veja a letra de Rotomusic de Liquidificapum e cante.

Veja também o vídeo da música tocada.


Intro:
E----------------------------------|-------------------------|---5---------5--------------------
B----------------------------------|-------------------------|-----8-6-5-----8-6-5--5/8-5/8-5/8-
G----------------------------------|-------------------------|-7---------7----------------------
D---------2-0-------------2-0------|-----2-0--2-0-2----------|----------------------------------
A-0-0-0-0-----4-2-0-0-0-0-----4-2--|-0-4------------3-2---0--|----------------------------------
E----------------------------------|--------------------3----|----------------------------------

E---------5---------5---------------------------|------------------------------------
B-5/8-5-----8-6-5-----8-6-5--5/8-5/8-5/8-5/8-5--|-3/5-----------------3/5------------
G-------7---------7-----------------------------|-----5-----5-----5-------5-----5----
D-----------------------------------------------|-------7-7---7-7---7-------7-7---7--
A-----------------------------------------------|------------------------------------
E-----------------------------------------------|------------------------------------

Solo:
E-5-3-3-5-3----------|----------------------------------------------------------------------
B-----------5-3------|----------------------------------------------------------------------
G---------------5-5--|---------------7-7-7-7-7-7-7-7-6-----------------7-7-7-7-7-7-7-9-7-9--
D--------------------|-------7-5-7-8---------------------------7-5-7-8----------------------
A--------------------|-5-7-8-----------------------------5-7-8------------------------------
E--------------------|----------------------------------------------------------------------

...hoji                                            ...no ar
E--------------------------------------------------|----------------------------------
B--------------------------------------------------|----------------------------------
G--------------------------------------------------|----------------------------------
D--------------------------------------------------|----------------------------------
A-----0-1-0-2-----0-1-0-3-----0-1-0-2-----0-1-0-3--|----------------------------------
E-0-0---------0-0---------0-0---------0-0----------|-0-0-2-3-0-2-3-0-0-2-3-0-2-3-0-0--


[Intro:]A Em A Em (2X) A D E C B G A  2X
        G# A (7X) Dm C Bb A (3X) Dm C
        D A 4X

        A
Well I give up understanding
It's against my will
Time's pushing me away from the pop
'Cause I feel like a robber
And I look like a cop
Boogie woogie mother fucker
This here music can't stop
A  G# G  G# A
In my life I try and I try
It's time to make my mind
Live or die

A
What I'm asking you
At the end of my pray
God give me just to be friendly
Been trying to calculate my fate
Been trying to meet you

Solo: Dm C Bb A

 C
Hoje as pessoas vão morrer
Hoje as pessoas vão matar
     G
O espírito fatal
                              C
E a psicose da morte estão no ar
   F
O mundo poderia acabar
 C
Já, agora, nesse momento
 G
Porque só eu estou sabendo
E eu já fiz tudo
                         C
que eu tinha pra fazer hoji

Solo:E B E C 4X
     E F# G  3X

      A
Tá na hora de você pensar de novo
Nas porquêra que ocê faz na sua vida
Ê vida sofrida
Esse ano vô curá minhas firida



Quer fazer uma correção nesta cifra?







    Comentários (0) Postar um Comentário

    Nenhum comentário encontrado. Seja o primeiro!