Cifra da música: Menti Pra Você, Mas Foi Sem Querer - Pato Fu

Esse cifra de Pato Fu já foi acessado por 441 pessoas.

Comente

A música Menti Pra Você, Mas Foi Sem Querer fez muito sucesso quando foi gravada por Pato Fu. Quer conhecer a letra dela? Veja a letra de Menti Pra Você, Mas Foi Sem Querer e cante.

Veja também o vídeo da música tocada.


      v - vibrato
      b - bend string up
      r - release bend
      / - slide up
      h - hammer on 
  

A introdução pode ser feita com duas guitarras. A primeira:

  
E----------------------------------------------------------------
B----------------------------------------------------------------
G----------------------------------------------------------------
D----------------------------------------------------------------
A--5-5-4-4-3-3-2-2-----------------------------------------------
E---------------------3-3----1-1---------------------------------
  
A segunda:
  
E----------------------------------------------------------------
B-------8---------8v---------------------------------------------
G----10---10---10----10------------------------------------------
D--9---------9----------9----------------------------------------
A----------------------------------------------------------------
E----------------------------------------------------------------
  
O solo no meio:
  
E----------------------------------------------------------------
B----8-8----8-8-8-8/10-------------------------------------------
G--7-----10------------10-7-7-7----------------------------------
D-------------------------------10-8-10-------8-10-10b11r10-8----
A---------------------------------------8h10------------------10-
E----------------------------------------------------------------
  
  
E--------------------------------------------------------10------
B----8-8----8-8-10---10-10-11---11-11-13---13---------13----13---
G--7-----10--------7----------7----------9----9-10-11------------
D----------------------------------------------------------------
A----------------------------------------------------------------
E----------------------------------------------------------------
  
  
E-------10-------------------------------------------------------
B----13----13----------------------------------------------------
G-11----------11-------------------------------------------------
D----------------------------------------------------------------
A----------------------------------------------------------------
E----------------------------------------------------------------


G7
Menti pra você
        D7
Mas foi sem querer
      Bb7
Me perdoe amor
        C7
Mas não pude conter,
    G7                D7
Não pude segurar a mentira
      Bb7          C7        D7
Que pulou da minha boca em você

Pulou em você
         Bb7
Ó meu benzinho
    D7                   C7
Não posso lhe dizer a verdade
    G7                D7     G7
Não posso parar de mentir no mundo

G7                       D7
Meu ser é assim desde criança
            Bb7  C7
Não de confiança
    G7                D7
Não posso parar de mentir
        Bb7             C7
Mentira branca, mentira preta
       D7
Sem querer

Eu minto pra você 
         Bb7
Ó meu benzinho
    D7                   C7
Não posso lhe dizer a verdade
    G7                D7     G7
Não posso parar de mentir no mundo



Quer fazer uma correção nesta cifra?







    Comentários (0) Postar um Comentário

    Nenhum comentário encontrado. Seja o primeiro!