Cifra da música: Imperfeito - Pato Fu

Esse cifra de Pato Fu já foi acessado por 630 pessoas.

Comente

A música Imperfeito fez muito sucesso quando foi gravada por Pato Fu. Quer conhecer a letra dela? Veja a letra de Imperfeito e cante.

Veja também o vídeo da música tocada.


1° solo(Am E C F)

E----------------|--------------|--------------------------------
A----------------|--------------|--------------------------------
D----------------|--------------|--------------------------------
G-------5-4-5-2--|-2-4-5--------|---------------------5-5--------
B-5-5-3----------|-------3-5----|-5-5-5-5-6-5---6-5-3------------
E----------------|-----------4--|-------------3------------------

2° solo(A F E E7)
E-----------------------|--------------------------------------
A---------------------7-|--------------------------------------
D-7---7-9-10-10-9-7-9---|-7---7-9-10-10-9-7-9------------------
G-----------------------|---------------------9------9---------
B-----------------------|--------------------------------------
E-----------------------|--------------------------7-----------



Am
Eu sei que meu amor
E
É imperfeito
C                         F
Mas se ele deixar, vou lhe mostrar

O quanto também
Fm
Tenho defeito
C          A7
Não é pra me gabar
    Dm 
Mas rio do que faço
    E7 
Eu devia chorar

Eu sei o mal que fiz
Já está feito
Mas lhe pedi perdão, por ser assim
E o coração que
Tenho no peito
Não quer acreditar
Já nem estou mais aqui
Nem em qualquer lugar

C                      Dm  
Lá vai se embora meu mundo sem mim...
F                           C            G   
O que há de errado em ser tão errado assim?
C                       Dm  
Já vou saindo, não precisa empurrar...
F                      Fm  
Pois meu maior defeito é insistir
              C 
Que ele é perfeito,
                 G                    F  Fm   
Que é pura crueldade pedir pra ele mudar

[Solo] Am E C F

Fm 
Nem luz, nem espelho,
C            A7  
Nem olhos pra enxergar
Dm 
Acho que sou alguém
     E7 
Que nunca vai mudar

[Solo] A F E E7




Quer fazer uma correção nesta cifra?







    Comentários (0) Postar um Comentário

    Nenhum comentário encontrado. Seja o primeiro!