Cifra da música: Deus - Pato Fu

Esse cifra de Pato Fu já foi acessado por 495 pessoas.

Comente

A música Deus fez muito sucesso quando foi gravada por Pato Fu. Quer conhecer a letra dela? Veja a letra de Deus e cante.

Veja também o vídeo da música tocada.


       h - hammer on
       p - pull off
       b - bend string up
       r - release bend
       / - slide up
       v - vibrato
  
A introdução e os instrumentais são feitos com várias guitarras.Uma elas:
  
E----------------------------------------------------------------
B--14-----14-----14-----14-14-13-13-12-12------------------------
G-----12v----12v----12v-14-14-13-13-12-12------------------------
D----------------------------------------------------------------
A----------------------------------------------------------------
E----------------------------------------------------------------
  
Outra:
  
E----------------------------------------------------------------
B----------------------------------------------------------------
G-----------------------12---------------------------------------
D-----------------12-14------------------------------------------
A--------10-12/14------------------------------------------------
E--10/12---------------------------------------------------------
  
E a base (A F# G):
  
E----------------------------------------------------------------
B----------------------------------------------------------------
G--2-2--2-2--2-2-------------------------------------------------
D--2-2--2-2--2-2-------------------------------------------------
A--0-0--0-0--0-0--4-5--------------------------------------------
E-----------------2-3--------------------------------------------
  
  
Solo com wah-wah no meio:
  
E----------------------------------------------------------------
B----------------------------------------------------------------
G----5-7-7h8-7-5---5-7-7-7h8p7-5---5-7-7h8-7-5---5-7-7-7h8-7b8---
D--7-------------7---------------7-------------7-----------------
A----------------------------------------------------------------
E----------------------------------------------------------------
  
  
E----------------------------------------------------------------
B----------------------------------------------------------------
G--7b8r7-5v------------------------------------------------------
D----------------------------------------------------------------
A----------------------------------------------------------------
E----------------------------------------------------------------

Intro e instrumental: (A F# G)

A7
Deus está no sinal vendendo chiclete

Outro me assaltou

Levou todo o meu dinheiro
                   D7
Me espetou com canivete
A7
Deus arranhou meu carro

E bagunçou meu lixo

Deuses passam fome

A gente passa por cima
                    D7
Deus é menos que um bicho
A7
Deus mentiu pra mim

Diz que não foi ele

Outro Deus é que é o ladrão

E que tá pedindo pra ajudar
                      D7
A mãe doente e dois irmão

Am7 Am7/G  F7   E
Deus, meu Deus
  Am7        Am7/G 
Será que você
   F7        E
É só uma ilusão?
     Am7           Am7/G
Não pode estar vivo
  F7
Você come lixo
  E              
Você come poluição




Quer fazer uma correção nesta cifra?







    Comentários (0) Postar um Comentário

    Nenhum comentário encontrado. Seja o primeiro!