Cifra da música: 2 Malucos - Pato Fu

Esse cifra de Pato Fu já foi acessado por 480 pessoas.

Comente

A música 2 Malucos fez muito sucesso quando foi gravada por Pato Fu. Quer conhecer a letra dela? Veja a letra de 2 Malucos e cante.

Veja também o vídeo da música tocada.


Introdução e instrumental:

  
E----------------------------------------------------------------
B--------6-6-6-----6---------------6-6-6-----7-----8-------------
G----5-7-------7-5---7-5-7-----5-7-------7-5---6-7---------------
D--7-------------------------7-----------------------------------
A----------------------------------------------------------------
E----------------------------------------------------------------
  
  
E----------------------------------------------------------------
B--------6-6-6-----6---------------6-6-6-----7-------------------
G----5-7-------7-5---7-5-7-----5-7-------7-5---------------------
D--7-------------------------7-----------------6-7---------------
A----------------------------------------------------------------

D
Seguro as coisas que são minhas
Bem perto de mim
Não vou deixar pedaços meus
Pra todo lado e aqui

G
Vem segure a minha mão
                                  D
Vamos juntos entrar em decomposição
G
Quem ouviu a nossa prece?

Qual santo que merece
                  D
Ter o nosso perdão?

D
O mundo está parando 
Mas nem presto atenção
Qual é a novidade?
Qual a nova invenção?




Quer fazer uma correção nesta cifra?







    Comentários (0) Postar um Comentário

    Nenhum comentário encontrado. Seja o primeiro!