Cifra da música: Fui Fiel - Pablo e Grupo Arrocha

Esse cifra de Pablo e Grupo Arrocha já foi acessado por 1177 pessoas.

Comente

A música Fui Fiel fez muito sucesso quando foi gravada por Pablo e Grupo Arrocha. Quer conhecer as demais músicas? Conheça as letras das músicas gravadas por Pablo e Grupo Arrocha e aproveite.

Veja também o vídeo da música tocada.




Tom: E
		
 E                          B9
Hoje eu acordei, me veio a falta de você
    F#m              A
Saudade de você, saudade de você
     E                         B9
Lembrei que me acordava de manhã só pra dizer:
      F#m
"Bom dia, meu bebê!
   A
Te amo, meu bebê!”

Solo Introdução:

Primeira Parte

E|----7-------------------------------
B|--9---9-9-10-9-------7-10-9-7---7--
G|-----------------9-6-----------9---9
D|------------------------------------
A|------------------------------------
E|------------------------------------


Segunda Parte

E|----7--------------12-11-9----------
B|--9---9-9-10-9------------9-10-12-9
G|-----------------9------------------
D|------------------------------------
A|------------------------------------
E|------------------------------------


E
Foi bonito, foi
B9            C#m
Foi intenso, foi verdadeiro
A
Mas sincero
E              B9
Sei que fui capaz
           C#m
Fiz até demais
     A
Te quis do teu jeito
E       B9
Te amei, te mostrei
C#m                   A
Que o meu amor foi o mais profundo
E        B9
Me doei, me entreguei
     C#m      A
Fui fiel! Chorei, chorei...

 E                          B9
Hoje eu acordei, me veio a falta de você
    F#m              A
Saudade de você, saudade de você
     E                         B9
Lembrei que me acordava de manhã só pra dizer:
      F#m
"Bom dia, meu bebê!
   A
Te amo, meu bebê!”


Quer fazer uma correção nesta cifra?







    Comentários (0) Postar um Comentário

    Nenhum comentário encontrado. Seja o primeiro!