Cifra da música: O Milionário - Os Incríveis

Esse cifra de Os Incríveis já foi acessado por 2580 pessoas.

Comente

A música O Milionário fez muito sucesso quando foi gravada por Os Incríveis. Quer conhecer as demais músicas? Conheça as letras das músicas gravadas por Os Incríveis e aproveite.

Veja também o vídeo da música tocada.


Intro    : ( G,Am,D,G,D )
Base     : ( G,Am,D,G,D )
Variação : ( G,G#,A,G#,G ) 2X ( D )

************* BASE NORMAL *************
1º RIFF
e|------------------------------------------3----------3-------------------| 
B|---------------------------3--3----5--5-------5--5------5--4--5~~~~------| 
G|---0--0----2--2----4--4--------------------------------------------------| 
D|-------------------------------------------------------------------------| 
A|-------------------------------------------------------------------------| 
E|-------------------------------------------------------------------------|

e|---5-5---7---5-5----7----5-5----7-5-7-5---3---0--------------------------| 
B|--------------------------------------------------3^---------------------| 
G|-------------------------------------------------------------------------| 
D|-------------------------------------------------------------------------| 
A|-------------------------------------------------------------------------| 
E|-------------------------------------------------------------------------|

e|------------------------------------------3----------3-------------------| 
B|---------------------------3--3----5--5-------5--5------5--4--5~~~~------| 
G|---0--0----2--2----4--4--------------------------------------------------| 
D|-------------------------------------------------------------------------| 
A|-------------------------------------------------------------------------| 
E|-------------------------------------------------------------------------|

e|---5-5---7---5-5----7----5-5----7-5-7-5---3---0--------------------------| 
B|--------------------------------------------------3^---------------------| 
G|-------------------------------------------------------------------------| 
D|-------------------------------------------------------------------------| 
A|-------------------------------------------------------------------------| 
E|-------------------------------------------------------------------------|

2ºRIFF
e|------7-----10---|---08--10--08--10----7----5---|------------15------14--| 
B|---8--8-----12---|---10--12--10--12----8----5---|--5/13--13------13------| 
G|---7-------------|--------------------------5---|------------------------| 
D|-----------------|------------------------------|------------------------| 
A|-----------------|------------------------------|------------------------| 
E|-----------------|------------------------------|------------------------|

e|--14--12--14--14--|--12--14--14--|--14--14----14--12---10--|--10----7----| 
B|--15--13--15--15--|--13--15--15--|--16--16----15--13---12--|--12----8----| 
G|------------------|--------------|-------------------------|-------------| 
D|------------------|--------------|-------------------------|-------------| 
A|------------------|--------------|-------------------------|-------------| 
E|------------------|--------------|-------------------------|-------------| 

e|------7-----10---|---08--10--08--10----7----5---|------------15------14--| 
B|---8--8-----12---|---10--12--10--12----8----5---|--5/13--13------13------| 
G|---7-------------|--------------------------5---|------------------------| 
D|-----------------|------------------------------|------------------------| 
A|-----------------|------------------------------|------------------------| 
E|-----------------|------------------------------|------------------------|

e|--14--12--14--14--|--12--14--14--|--14--14----14--12---10--|--10----7----| 
B|--15--13--15--15--|--13--15--15--|--16--16----15--13---12--|--12----8----| 
G|------------------|--------------|-------------------------|-------------| 
D|------------------|--------------|-------------------------|-------------| 
A|------------------|--------------|-------------------------|-------------| 
E|------------------|--------------|-------------------------|-------------|

************* VARIAÇÃO *************
e|-------------------------------------------------------------------------| 
B|---8h9-8h9-8h9-8h9-8h9-8h9-8h9-8h9-8h9-8h9-8h9-8h9-8h9-9---10-10-9-9-8~~-| 
G|-------------------------------------------------------------------------| 
D|-------------------------------------------------------------------------| 
A|-------------------------------------------------------------------------| 
E|-------------------------------------------------------------------------|


e|------15---17---15-15--17---15~~~~---------------------------------------| 
B|-------------------------------------------------------------------------| 
G|-------------------------------------------------------------------------| 
D|-------------------------------------------------------------------------| 
A|-------------------------------------------------------------------------| 
E|-------------------------------------------------------------------------|
 
e|-------------------------------------------------------------------------| 
B|---8h9-8h9-8h9-8h9-8h9-8h9-8h9-8h9-8h9-8h9-8h9-8h9-8h9-9---10-10-9-9-8~~-| 
G|-------------------------------------------------------------------------| 
D|-------------------------------------------------------------------------| 
A|-------------------------------------------------------------------------| 
E|-------------------------------------------------------------------------|

e|------------------| 
B|----5----3~~~~~~--| 
G|------------------| 
D|------------------| 
A|------------------| 
E|------------------|
 
OBS:
( ************* REPITIR A MÚSICA INTEIRA SÓ QUE ABAFADA ATÉ O 1ºRIFF DEPOIS É 
SÓ TOCA-LA NORMALMENTE. MO FINAL DA MÚSICA TEM UMA VARIAÇÃO ************* ).

base: (G,Am,D,G#,G) (G#,A)

e|------------------------------------------3----------3-------------------| 
B|---------------------------3--3----5--5-------5--5------5--4--5~~~~------| 
G|---0--0----2--2----4--4--------------------------------------------------| 
D|-------------------------------------------------------------------------| 
A|-------------------------------------------------------------------------| 
E|-------------------------------------------------------------------------|
                                                 G#             A
e|---5-5---7---5-5----7----5-5----7-5-7-5---3---8-8-8-8--7-7---5~~~~-------| 
B|--------------------------------------------------3^---------------------| 
G|-------------------------------------------------------------------------| 
D|-------------------------------------------------------------------------| 
A|-------------------------------------------------------------------------| 
E|-------------------------------------------------------------------------|
              2X
e|----8--7-7-7--5--7--5--7----|----8-8-7-7-7-6-6-5----| 
B|----------------------------|-----------------------| 
G|----------------------------|-----------------------| 
D|----------------------------|-----------------------| 
A|----------------------------|-----------------------| 
E|----------------------------------------------------|

              2X                    G#  G  F#  F
e|----8--7-7-7--5--7--5--7----|----4---3--2---1-------0----| 
B|----------------------------|-----------------------0----| 
G|----------------------------|-----------------------0----| 
D|----------------------------|-----------------------0----| 
A|----------------------------|-----------------------0----| 
E|----------------------------------------------------0----|  

VIOLÃO DA BASE FAZ UM HARMÔNICO NO FINAL

e|---12---| 
B|---12---|
G|---12---|
D|---12---|
A|---12---|
E|---12---|



Quer fazer uma correção nesta cifra?







    Comentários (0) Postar um Comentário

    Nenhum comentário encontrado. Seja o primeiro!