Cifra da música: Garrafao - Os Feras do Baile

Esse cifra de Os Feras do Baile já foi acessado por 163 pessoas.

Comente

A música Garrafao fez muito sucesso quando foi gravada por Os Feras do Baile. Quer conhecer as demais músicas? Conheça as letras das músicas gravadas por Os Feras do Baile e aproveite.

Veja também o vídeo da música tocada.



E|--------7---------------------7-----------|
B|------8----x----------------8----x--------|
G|----7------x----7---------7------x-----7--|
D|-5---------x--5---5----5---------x---5---5|
A|-----------x---------------------x--------|
E|------------------------------------------|
E|--------2---------------------2-----------|
B|------3----x----3-----------3----x-----3--|
G|----2------x--2---2-------2------x---2---2|
D|-0---------x-----------0---------x--------|
A|-----------x---------------------x--------|
E|------------------------------------------|


Quer fazer uma correção nesta cifra?







    Comentários (0) Postar um Comentário

    Nenhum comentário encontrado. Seja o primeiro!