Cifra da música: Quase Lá - Oni³

Esse cifra de Oni³ já foi acessado por 284 pessoas.

Comente

A música Quase Lá fez muito sucesso quando foi gravada por Oni³. Quer conhecer as demais músicas? Conheça as letras das músicas gravadas por Oni³ e aproveite.


Tom: D

Intro:


    D                      G                        F           E
E|------------------------------------------------------------------------------
B|------------------------------------------------------------------------------
G|--7-----7--7--7--9--10--12-----12--12--12--10--9--10-----9h10r9--10--9--5--7--
D|------------------------------------------------------------------------------
A|------------------------------------------------------------------------------
D|------------------------------------------------------------------------------


     D               G         F   A
E|--------------------------------------------
B|------------------------------------13--15--
G|--7--7--7--9--10--12--10h12r10--14----------
D|--------------------------------------------
A|--------------------------------------------
D|--------------------------------------------


     D                   G                          F              E
E|------------------------------------------------------------------------------------
B|--15--15--15--17--18--20-----20--20--20--18--17--18-----17--18--17--18--17--13--15--
G|------------------------------------------------------------------------------------
D|------------------------------------------------------------------------------------
A|------------------------------------------------------------------------------------
D|------------------------------------------------------------------------------------


     D                  G              F   A       D
E|----------------------------------------------------
B|--15--15--15--17--18--20-----18h20r18---------------
G|-------------------------------------------21--19v--
D|---------------------------------------19-----------
A|----------------------------------------------------
D|----------------------------------------------------


E|--------------------------------------------
B|--------------------------------------------
G|----------------------------------------7---
D|--0-------------------------------------7---
A|--0-------------------------------------5---
D|--0--0--0--0--0--0--0--0(Repete x vezes)


Depois: D F A D

(Riff3)

E|----------------------------------------------------------------------------------------------------------
B|------------------------------------------------------------------------------------------13--13--13--13--
G|--7--7--7--7--7--7--7--7--10--10--10--10--10--10--10--10--12--12--12--12--12--12--12--12------------------
D|----------------------------------------------------------------------------------------------------------
A|----------------------------------------------------------------------------------------------------------
D|----------------------------------------------------------------------------------------------------------


Repete D F A D
(Riff4)
E|-------
B|-------

G|--5b7(H)-- Bend lento até alcançar um tom acima.

D|-------     Harmônico artificial no final.
A|-------
D|-------
                                                 

Riff dos Versos: 4x

E|-------------------------------------------------------------------------------
B|-------------------------------------------------------------------------------
G|-----------------------------------5-------------------------------------------
D|--0-----0--0--3--0-----0--0--0--5--5-----0-----0--0--3--0-----0--0--0----------
A|--0-----0--0--3--0-----0--0--0--5--3-----0-----0--0--3--0-----0--0--0----------
D|--0-----0--0--3--0-----0--0--0--5--------0-----0--0--3--0-----0--0--0--3--5r3--


Vê o tempo que passou
Nada mais é igual
Palavras saem da tua boca
De forma louca
Dois corpos movidos pelo instinto
Eletrificam o ar
Num próximo instante quase lá
A ponto de chegar

D      G     F     E
Eu não vou mais cruzar o teu caminho
D      G F     A          (Riff)
Não vou mais ficar sozinho

(Riff versos)
Eu não sei o que você espera de mim
Há algo que se possa fazer pra não ficar tão ruim
Deixa ver se consigo entender
Antes que chegue ao fim
Pois ao final das contas
Nossa história não foi sempre assim

D        G      F           E
Não vou não vou Não quero mais parar
D            G                F            A
Nem ver o tempo passar. Caminhar é desvendar é no passo estar.

Repete D F A D
Repete Riff 3

Solo:

E|-----10--------------------------------------
B|---------10---------10--8---------8----------
G|--7----------10--7---------10--7-----10--7v--
D|---------------------------------------------
A|---------------------------------------------
D|---------------------------------------------


E|----------------------------------------
B|--3--3/6--5--5/8--6--6/10--8--3/6--1/3--
G|----------------------------------------
D|----------------------------------------
A|----------------------------------------
D|----------------------------------------


E|------------------------------------------13(8x)-17(8x)-----
B|--3--3/6--5--5/8--6--6/8--8/15-----15(8x)---------------15v--
G|-------------------------------------------------------------
D|-------------------------------------------------------------
A|-------------------------------------------------------------
E|-------------------------------------------------------------


Refrão

Riff Final 

(PM ---------------------------------)
E|------------------------------------
B|------------------------------------
G|------------------------------------
D|------------------------------------
A|------------------------------------
E|--0--2--3--0--2--3/7(v)-0-2-2/3--0--

Quer fazer uma correção nesta cifra?







    Comentários (0) Postar um Comentário

    Nenhum comentário encontrado. Seja o primeiro!