Cifra da música: Compartilhar - Oficina G3

Esse cifra de Oficina G3 já foi acessado por 487 pessoas.

Comente

A música Compartilhar fez muito sucesso quando foi gravada por Oficina G3. Quer conhecer as demais músicas? Conheça as letras das músicas gravadas por Oficina G3 e aproveite.

Veja também o vídeo da música tocada.


Tom: C


E|--------------------------------------------------------------------------------|
B|--------------------------------------------------------------------------------|
G|--------------------------------------------------------------------------------| 6x
D|--------------------------------------------------------------------------------|
A|--------------------------------------------------------------------------------|
D|----000000--000000--------000000---000000---------------------------------------|


E|--------------------------------------------------------------------------------|
B|--------------------------------------------------------------------------------|
G|--------------------------------------------------------------------------------|
D|--------------------------------------------------------------------------------|
A|--------------------------------------------------------------------------------|
D|-------555555--555555-------666666------------111111----------------------------|


E|--------------------------------------------------------------------------------|
B|--------------------------------------------------------------------------------|
G|--------------------------------------------------------------------------------| 3x   
D|--------------------------------------------------------------------------------|
A|--------------------------------------------------------------------------------|
D|----000000--000000--------000000---000000---------------------------------------|


E|--------------------------------------------------------------------------------|
B|--------------------------------------------------------------------------------|
G|--------------------------------------------------------------------------------|
D|--------------------------------------------------------------------------------|
A|--------------------------------------------------------------------------------|
D|-------555555--555555-------666666------------111111----------------------------|




essa parte repete na Intro e no começo da Musica


E|--------------------------------------------------------------------------------|
B|--------------------------------------------------------------------------------|
G|--------------------------------------------------------------------------------|
D|--------------------------------------------------------------------------------|  repete essa parte varias vez 
A|---------------------10---------------------------------------------------------|   tente fazer com a musica
D|-------0---10---12--------------------------------------------------------------|


E|--------------------------------------------------------------------------------|
B|--------------------------------------------------------------------------------|
G|--------------------------------------------------------------------------------|
D|-----------------------------12-------------------------------------------------|
A|--------------------10---12-----------------------------------------------------|
D|-------0---10---12--------------------------------------------------------------|


E|--------------------------------------------------------------------------------|
B|--------------------------------------------------------------------------------|
G|-----------------10--------------------------7----------------------------------|
D|-----------------10--------------------------7----------------------------------|
A|--------------8-----------------------5-----------------------------------------|
D|--------------8-----------------------5-----------------------------------------|


Quer fazer uma correção nesta cifra?







    Comentários (0) Postar um Comentário

    Nenhum comentário encontrado. Seja o primeiro!