Cifra da música: Ninguém regula a América - O Rappa

Esse cifra de O Rappa já foi acessado por 517 pessoas.

Comente

A música Ninguém regula a América fez muito sucesso quando foi gravada por O Rappa. Quer conhecer a letra dela? Veja a letra de Ninguém regula a América e cante.

Veja também o vídeo da música tocada.


Riff 1
e||-----------------------------------------------------------------------|
B||-----------------------------------------------------------------------|
G||-----------------------------------------------------------------------|
D||-----9-9-9-9-9---9-9-9-9-9--9-9-----9-9-9-9-9---9-9-9-9-9--9-9---------|
A||-----7-7-7-7-7---7-7-7-7-7--7-7-----7-7-7-7-7---7-7-7-7-7--7-7---------|
E||-----------------------------------------------------------------------| 
Riff 2
e||---------------------------------|-------------------------------------|
B||---------------------------------|-------------------------------------|
G||---------------------------------|-------------------------------------|
D||-----5-5-5-5-5---5-5-5-5-5--5-5--|---4-4-4-4-4---4-4-4-4-4—-4-4--------|
A||-----3-3-3-3-3---3-3-3-3-3--3-3--|---2-2-2-2-2---2-2-2-2-2—-2-2--------|
E||---------------------------------|-------------------------------------|

Riff 1                     |
ninguém regula a América   |
nobody fucks with America  |
                          (2x)
Riff 2                     |
ninguém regula a América   |
nobody fucks with America  |

( E )
satélites de cima
vigiando todos os atos de rebeldia
MST observado pela CIA
um avião cara de páu
preso na China
painel de controle
cidades sem culpa
na sensação do protocolo de kioto
carbonizado em plena chuva
de armas exportadas
sangrando no dólar
o dólar dos outros
coagulado e globalizado
nas veias abertas
de outra dívida externa

( E )
satellites from above
controling all the rebel act
nosy plane cought in China
pushing doors in Colombia
carbonized under the rain
globalized bleeding the dollar
under the Wall Street sky
risking everybody's lives

Riff 1                     |
ninguém regula a América   |
nobody fucks with America  |
                          (2x)
Riff 2                     |
ninguém regula a América   |
nobody fucks with America  |

( F E ) F 

( E )
forçando a porta da Colombia
com uma hipocrisia que vicia
o intelecto de Brasília
e outras capitais
estreladas deixando a bandeira
de fardas
que segue na arrogância
independente de quem for
O W. Bush de plantão
engatilhando mísseis sem limites
sobre o céu de Wall Street
arriscando a todos
com o medo de perder
mais uma guerra

Riff 1                     |
ninguém regula a América   |
nobody fucks with America  |
                          (4x)
Riff 2                     |
ninguém regula a América   |
nobody fucks with America  |





Quer fazer uma correção nesta cifra?







    Comentários (0) Postar um Comentário

    Nenhum comentário encontrado. Seja o primeiro!