Cifra da música: Pra te ter aqui - Netinho

Esse cifra de Netinho já foi acessado por 845 pessoas.

Comente

A música Pra te ter aqui fez muito sucesso quando foi gravada por Netinho. Quer conhecer a letra dela? Veja a letra de Pra te ter aqui e cante.

Veja também o vídeo da música tocada.


Tom: E
Intro:
     A          D      G                A
e|------------9------------------------------------|
B|---10~~--12---10~~-----------------------10-10~~-|
G|--------------------12p11-12p11-9----------------|
D|----------------------------------12-11----------|
A|-------------------------------------------------|
E|-------------------------------------------------|
     A          D
e|------------9-10-9---------|
B|---10~~--12--------12-10-x-|
G|---------------------------|
D|---------------------------|
A|---------------------------|
E|---------------------------|
           G                         A
e|------------------------------9p10h9-9-------|
B|---------------------------------------10~~--|
G|-----------------11p12h11-9-x----------------|
D|---12p14h12-11-x-----------------------------|
A|---------------------------------------------|
E|---------------------------------------------|
                      E
e|---------------------------------------------|
B|---------------------------------------------|
G|------9-11-12-11----9~~----------------------|
D|---12------------12--------------------------|
A|---------------------------------------------|
E|---------------------------------------------|
                A
 Me sinto tão sozinho
D     E              A
 Por que não vem me ver
D  E           A
 Preciso de carinho
D  E           A    
 Preciso de você

G|-----2--------------|
D|-2-4---4-x----------|
A|-----------0-1-2----|

Bm
 Me liga
D            A 
 Se liga em mim

G|---64----62---|  (na segunda:
                        B|--3b5-3b5-3b5r3-2-3------|
                        G|--------------------2~~--|)

Bm       D           
 Me diga        
         E                
 Se tem mesmo que ser assim

            D               E
 O meu coração vive na solidão
           C#m 
 E eu te pedindo 
                 F#m 
 Pra voltar pra mim
              Bm 
 Ficar do meu lado
             E 
 De rosto colado
             C#m 
 O corpo molhado
             F#m 
 Numa noite assim
       D        
 Eu te juro
                E 
 Eu te daria o mundo
              A 
 Pra te ter aqui


(repete TUDO!)
________________________________________
 Essa foi p galera q curte Netinho.
-->Tatá, Essa foi p vc! T Amo!!!


Quer fazer uma correção nesta cifra?







    Comentários (0) Postar um Comentário

    Nenhum comentário encontrado. Seja o primeiro!