Cifra da música: Chapeuzinho vermelho - Música Infantil

Esse cifra de Música Infantil já foi acessado por 2338 pessoas.

2.00 / 5 - 3
Comente

A música Chapeuzinho vermelho fez muito sucesso quando foi gravada por Música Infantil. Quer conhecer as demais músicas? Conheça as letras das músicas gravadas por Música Infantil e aproveite.

Veja também o vídeo da música tocada.


1°parte 
e|----------------8-7-5------------------------------ 
b|-----5-6-8-5----------8-5-----5-6-8-8-6-5---5------ 
g|-5-7----------5-----------5-7-------------7---7-7-- 
d|--------------------------------------------------- 
a|--------------------------------------------------- 
e|--------------------------------------------------- 
 
2°parte 
e|---------------8-7-5------------------------------- 
b|-----5-6-8-5---------8-5------5-6-8-8-6-5---5------ 
g|-5-7---------5------------5-7-------------7---5-5-- 
d|--------------------------------------------------- 
a|--------------------------------------------------- 
e|--------------------------------------------------- 
 
3°parte 
e|-8-7-5-----8-7-5----------------------------------- 
b|-------8-5-------8-5-----5-6-8-8-6-5---5----------- 
g|---------------------5-7-------------7---7-7------- 
d|--------------------------------------------------- 
a|--------------------------------------------------- 
e|--------------------------------------------------- 
 
4°parte 
e|-8-7-5-----8-7-5----------------------------------- 
b|-------8-5-------8-5-----5-6-8-8-6-5---5----------- 
g|---------------------5-7-------------7---5--------- 
d|--------------------------------------------------- 
a|--------------------------------------------------- 
e|--------------------------------------------------- 


Quer fazer uma correção nesta cifra?







    Comentários (0) Postar um Comentário

    Nenhum comentário encontrado. Seja o primeiro!