Cifra da música: Euthanasia - Larva

Esse cifra de Larva já foi acessado por 388 pessoas.

Comente

Tom: D


G1 Acustica 
G2 electrica

 G1 y G2 intro x 8

|-----------------|
|-----------------|
|-----------------|
|--00-77-88888888-|
|--55-55-66666666-|
|--66-66-66666666-|


 G1 y G2 x 2

|-------------------------------------------|
|-------------------------------------------|
|-7777-------------------7777---------------|
|-5555-8888-777-8-7-8-5--5555-777-55555555--|
|-5555-6666-555-6-5-6-3--5555-555-33333333--|
|------6666-555-6-5-6-3-------555-33333333--|


 G1 y G2 x 4

|-------------------------|
|-------------------------|
|-4444--5555--------------|
|-2222--3333—-5555--4444--|
|-2222--3333--3333--2222--|
|-------------3333—-2222--|


 G2 x 7

|-------------------------|
|-------------------------|
|-4444--5555--------------|
|-2222--3333—-5555--4444--|
|-2222--3333--3333--2222--|
|-------------3333—-2222--|


 G1 y G2 x 16               G2 El Solo entra de la repetición 9 a la 16

|-0000--0000--0000--0000--|-------------------------------------------------|
|-0000--1111--0000--3333--|-13-12-12-12---13-12-12-12--13-12-0-15-15-15-15--|
|-0000--0000--0000--0000--|-------------------------------------------------|
|-2222--2222--0000--0000--|-------------------------------------------------|
|-2222--3333--2222--0000--|-------------------------------------------------|
|-0000--0000--3333--2222--|-------------------------------------------------|


 G1 y G2 x 4

|-0--00--00--0--|
|-0--11--00--3--|
|-0--00--00--0--|
|-2--22--00--0--|
|-2--33--22--0--|
|-0--00--33--2--|


 G1 y G2 x 4              G2 teclado

|-0000--0000--0000--0000--|-------------------------------------------------|
|-0000--1111--0000--3333--|-13-12-11--------13-12-11----------13-12-11------|
|-0000--0000--0000--0000--|-------------------------------------------------|
|-2222--2222--0000--0000--|-------------------------------------------------|
|-2222--3333--2222--0000--|-------------------------------------------------|
|-0000--0000--3333--2222--|-------------------------------------------------|


 G1 y G2 x 2

|-0000--0000--0000--0000--|
|-0000--0000--0000--0000--|
|-0000--0000--0000--0000--|
|-2222--2222--2222--2222--|
|-2222--2222--2222--2222--|
|-0000--0000--0000--0000--|Final…

Quer fazer uma correção nesta cifra?







    Comentários (0) Postar um Comentário

    Nenhum comentário encontrado. Seja o primeiro!