Cifra da música: Hasta El Fin Del Mundo - La Barranca

Esse cifra de La Barranca já foi acessado por 289 pessoas.

Comente

A música Hasta El Fin Del Mundo fez muito sucesso quando foi gravada por La Barranca. Quer conhecer as demais músicas? Conheça as letras das músicas gravadas por La Barranca e aproveite.

Veja também o vídeo da música tocada.


Tom: D


E|------------------------------------------------|
B|----3------------------------3------------------|
G|---0------------2----3------0-----5------2----3-|
D|--------3-----2---1-------------3------2----1---|
A|-------3----1------------------------1----------|
E|-3------------------------3---------------------|


1a Guitarra:

E|----------------------------------------------|
B|-15----------------------15-------------------|
G|----------17-----------------------17---------|
D|-----16---------13-----------16---------------|
A|----------------------------------------------|
E|----------------------------------------------|


2a Guitarra:

E|----------------------------------------------|
B|-15----18----17----------15-------------------|
G|------------------13---------------17---------|
D|-----------------------------16---------------|
A|----------------------------------------------|
E|----------------------------------------------|


Trompetas:

E|------------------------------|
B|------------------------------|
G|--10-10-9-9-10-10-------------|
D|------------------------------|
A|------------------------------|
E|------------------------------|


Quer fazer uma correção nesta cifra?








    Comentários (0) Postar um Comentário

    Nenhum comentário encontrado. Seja o primeiro!