Cifra da música: Jawbreraker - Judas Priest

Esse cifra de Judas Priest já foi acessado por 353 pessoas.

Comente

A música Jawbreraker fez muito sucesso quando foi gravada por Judas Priest. Quer conhecer as demais músicas? Conheça as letras das músicas gravadas por Judas Priest e aproveite.


let ring =
palm mute .

 Intro
e|----------------------|
B|----------------------|
G|----------------------|
D|-9-----7--10--10--9=--|
A|-7--9--5---8---8--7=--|
E|----7-----------------|
                          
  Verso 1 & 2
e|-----------------|-----------------|-----------------|
B|-----------------|-----------------|-----------------|
G|-----------------|-----------------|-----------------|
D|-9-----9---------|-5-----5---------|-4-----4---------|
A|-7-7-7-7-7-7-7-7-|-3-3-3-3-3-3-3-3-|-2-2-2-2-2-2-2-2-|
E|---.-.---.-.-.-.-|---.-.---.-.-.-.-|---.-.---.-.-.-.-|
 |                                                    
e|--------------------------------|
B|--------------------------------|
G|-----------------------7-9-10-7-| Tocar na última vez.
D|-9-----9---------9--------------| 
A|-7-7-7-7-7-7-7-7-7-7-7----------|
E|---.-.---.-.-.-.---.-.----------|
                                      
  Bridge
e|---------------------------------------------------|
B|---------------------------------------------------|
G|---------------------------------------------------|
D|-7--8--9=--7--8--9-----9---------9-----9---------9-|
A|-5--6--7=--5--6--7-7-7-7-7-7-7-7-7-7-7-7-7-7-7-7-7-|
E|-------------------.-.---.-.-.-.---.-.---.-.-.-.---|
 |  
e|-----------------------|
B|-----------------------|
G|-----------------------|
D|-7--8--9---------------|
A|-5--6--7--9--10--7--9=-|
E|----------7---8--5--7=-|
     

  Chorus
e|---------------------------------------------------------------------------
B|---------------------------------------------------------------------------
G|-------10-----10-9-------10-----10-12-------10-----10----------------------
D|-------10-----10-9-------10-----10-12-------10-----10----------------------
A|-0-0-0----0-0------0-0-0----0-0-------0-0-0----0-0----0-0------------------
E|-.-.-.----.-.------.-.-.----.-.-------.-.-.----.-.----.-.------------------
 |1º parte          2º parte: só na 1ª vez do refrão
e|-----------------|-----------------|
B|-----------------|-----------------| Na 2º e na 3º vez do refrão,
G|-10-9------------|-----------------| a 2ª parte muda, mas eu ñ consegui
D|------10-12-10-9-|-8-7-------------| consegui achar as notas certas.
A|-----------------|-----10-9-7------| 
E|-----------------|------------10-9-|


  Interlude: 2X
e|-----------------------------------------------------|
B|-----------------------------------------------------|
G|-----------------------------------------------------|
D|-2-------------5-------------7-----7-----5-----5-----|
A|-0-0-0-0-0-0-0-3-0-0-0-0-0-0-5-0-0-5-0-0-3-0-0-3-0-0-|
E|---.-.-.-.-.-.---.-.-.-.-.-.---.-.---.-.---.-.---.-.-|
   
   
  Solo 1ª parte. 
  1ª, 2ª e 3ª vez
e|-------------------------------------------------------|
B|-------------------------------------------------------|
G|-------------------------------------------------------|
D|-------------------------------------------------------|
A|-2-------------5-------------7-------------5-----5-----|
E|-0-0-0-0-0-0-0-3-0-0-0-0-0-0-5-0-0-0-0-0-0-3-0-0-3-0-0-|
 |   . . . . . .   . . . . . .   . . . . . .   . .   . .
 |  4ª vez                                               
e|---------------------------------------------------------|
B|---------------------------------------------------------|
G|---------------------------------------------------------|
D|---------------------------------------------------------|
A|-2-------------5-------------7-------------5-----5-----7-|
E|-0-0-0-0-0-0-0-3-0-0-0-0-0-0-5-0-0-0-0-0-0-3-0-0-3-0-0-5-|
     . . . . . .   . . . . . .   . . . . . .   . .   . .     
  
  Solo 2ª parte.
  2X
e|-----------------------------------------------------------------
B|-----------------------------------------------------------------
G|-----------------------------------------------------------------
D|-----------------------------------------------------------------
A|-----------------------------------------------------------------
E|-5-5-5-5-5-5-5-5-1-1-1-1-1-1-1-1-2-2-2-2-2-2-2-2-3-3-3-3-4-4-4-4-
   . . . . . . . . . . . . . . . . . . . . . . . . . . . . . . . . 
-------------------------------------------------------|
-------------------------------------------------------|
-------------------------------------------------------|
-------------------------------------------------5---4-|
-------------------------------------------------3---2-|
-5-5-5-5-5-5-5-5-1-1-1-1-1-1-1-1-2-2-2-2-2-2-2-2-------|
 . . . . . . . . . . . . . . . . . . . . . . . .

 
  Depois do solo.
e|----------------------------------------|
B|----------------------------------------|
G|----------------------------------------|
D|-2--3--4--5--6--7--8--9--10-11-12--11-9-| Ñ está 100% certo.
A|-0--1--2--3--4--5--6--7--8--9--10--9--7-|
E|----------------------------------------|


Ouça a música para 'pegar' o ritmo e a estrutura dos riffs.
Sugestões, comentários, etc, mande um e-mail!

Quer fazer uma correção nesta cifra?







    Comentários (0) Postar um Comentário

    Nenhum comentário encontrado. Seja o primeiro!