Cifra da música: Will Of The Wind - Jamie Rivera

Esse cifra de Jamie Rivera já foi acessado por 103 pessoas.

Comente

A música Will Of The Wind fez muito sucesso quando foi gravada por Jamie Rivera. Quer conhecer as demais músicas? Conheça as letras das músicas gravadas por Jamie Rivera e aproveite.

Veja também o vídeo da música tocada.


Tom: D

Intro: D E Em D
 

                    D                       E                 Em
E|---------2-------5-----|-------------5---4-----|-7---------3----2-------|
B|-2---3-------5---------|---------3-------------|------5-------------3---|
G|-----------------------|-----2-----------------|------------------------|
D|-----------------0-----|-----------------0-----|-----------0------------|
A|-----------------------|-----------------------|------------------------|
E|-----------------------|-----------------------|------------------------|


                                             D                          E
E|------------------------|---------5---5--------------------5/7---5---4-----|
B|-----0------------2h3p2-|-2---3-----------------3--2--3--------------------|
G|----------2-------------|--------------------------------------------------|
D|------------------------|--------------------------------------------------|
A|------------------------|--------------------------------------------------|
E|------------------------|--------------------------------------------------|        


              Em                                  D
E|---------2-2h3----2-----------|---------------------------|
B|------5---------------5---3---|---------------------------|
G|------------------------------|-4---2---0---2-------------|
D|------------------------------|---------------------------|
A|------------------------------|---------------------------|
E|------------------------------|---------------------------|


Verse 1:
           A
I've spent half my life looking for
              D5(9)
the reasons things must change
    A                                D5(9)
And half my life trying to make them stay the same

Pre-chorus:

F#m   F#                   Bm
  But love would fade like summer into fall
A          E7                E
  All that I could see was a mystery
   Em7              A4(7)
It made no sense at all

Chorus:
                   D5(9)             F#m
The will of the wind you feel it and then
        G                  A4(7)
It will pass you blowing steady
                  D5(9)           F#m
It comes and it goes and God only knows
          G                 C7M
You must keep your sense on ready
             Bm                     E
So when it begins get all that you can
              Em       A4(7)        D
You must be friend the will of the wind

D E Em D

Verse 2:
           A4(7)         A
I've spent so many hours thinking
                    D5(9)
About the way thing might have been
    A4(7)          A                   D5(9)
And so many hours trying to bring the good times back again

Pre-chorus:
F#m   F#             Bm              A
  And so it goes for lonely hearted fools
     E7              E
They let their days slip away
  Em7               A4(7)
Until they give into

Chorus:
                   D5(9)             F#m
The will of the wind you feel it and then
        G                  A4(7)
It will pass you blowing steady
                  D5(9)           F#m
It comes and it goes and God only knows
          G                 C7M
You must keep your sense on ready
             Bm                     E
So when it begins get all that you can
              Em       A4(7)        D
You must be friend the will of the wind

D E Em D (2x)

Outro:
              D                     E
So when it begins get all that you can
            Em                     D
You must befriend the will of the wind


Quer fazer uma correção nesta cifra?







    Comentários (0) Postar um Comentário

    Nenhum comentário encontrado. Seja o primeiro!