Cifra da música: Waiting Here - Jake Isaac

Esse cifra de Jake Isaac já foi acessado por 311 pessoas.

Comente

Veja também o vídeo da música tocada.


Tom: A

[Introdução]

e|5/7--7--7-|-5--5--5-|-4--4--4-|-4--4--4-|
B|----5--5--|---5--5--|---5--5--|---5--5--|
G|----------|---------|---------|---------|
D|----------|---------|---------|---------|
A|----------|---------|---------|---------|
E|----------|---------|---------|---------|


e|5/7--7--7-|-5--5--5-|-0--0--0-|-0--0--0-|
B|----5--5--|---5--5--|---5--5--|---5--5--|
G|----------|---------|---------|---------|
D|----------|---------|---------|---------|
A|----------|---------|---------|---------|
E|----------|---------|---------|---------|



[Verso]
E            A               E
   Here she comes home again
E             A              E
   where she cry, tear stain
E             A             E
   Took her hands, coldness
E             A            E
   Held her close, weaping
C#m           A            E
   There we stood, moments
C#m           A          E
   Winter's home, gaming
C#m            A               E
   White hill snow, all around
C#m             A                       E
   She don't care, cause she's safe now


[Refrão]
     C#m                    E
These arms were meant for you
         A                   F#m
And these shoulders meant to carry you
     C#m                      E
When you call my name, come running
          A                  F#m
'til then I'll be waiting, I'll be waiting here


   E          A         E         E

e|5/7--7--7-|-5--5--5-|-4--4--4-|-4--4--4-|
B|----5--5--|---5--5--|---5--5--|---5--5--|
G|----------|---------|---------|---------|
D|----------|---------|---------|---------|
A|----------|---------|---------|---------|
E|----------|---------|---------|---------|


Waiting here


   E          A         E         N/C
e|5/7--7--7-|-5--5--5-|-0--0--0-|---------|
B|----5--5--|---5--5--|---5--5--|---------|
G|----------|---------|---------|---------|
D|----------|---------|---------|---------|
A|----------|---------|---------|---------|
E|----------|---------|---------|---------|



[Verso]
C#m             A               E
    Moments pass, she pulls away
C#m                   F#m               E
    then the moment stops, my heart faint
C#m             A                   E
    She looks up and we're eye to eye
C#m               F#m                      E
    She whispers "love, never leave my side"


[Refrão]
       C#m                 E
These arms were meant for you
          A                   F#m
And these shoulders meant to carry you
       C#m                     E
When you call my name, come running
          A                F#m
'til then I'll be waiting, I'll be waiting



(The following is played behind the next part)


E|----0--0--|---0--0--|---0--0--|---0--0--|
B|----------|---------|---------|---------|
G|7/9---9--9|-7---7--7|-6---6--6|-4---4--4|
D|----------|---------|---------|---------|
A|----------|---------|---------|---------|
E|----------|---------|---------|---------|


E|----0--0--|---0--0--|---0--0--|---0--0--|
B|----------|---------|---------|---------|
G|7/9---9--9|-7---7--7|-6---6--6|-5---5--5|
D|----------|---------|---------|---------|
A|----------|---------|---------|---------|
E|----------|---------|---------|---------|



[Ponte]
E          D
Full steps in the storm and
C#m      E
Turning, head back home now
E       D               C#m        C
Back to where we started
E         D
Daybreak, leave me to hang low
C#m      E
Shadow, no more light there
E       D               C#m        C
Back to where we started


[Refrão]
       C#m                 E
These arms were meant for you
          A                   F#m
And these shoulders meant to carry you
       C#m                     E
When you call my name, come running
          A                F#m
'til then I'll be waiting, I'll be waiting

       C#m                 E
These arms were meant for you
          A                   F#m
And these shoulders meant to carry you
       C#m                     E
When you call my name, come running
          A                F#m
'til then I'll be waiting, I'll be waiting


[Outro]

e|5/7--7--7-|-5--5--5-|-4--4--4-|-4--4--4-|
B|----5--5--|---5--5--|---5--5--|---5--5--|
G|----------|---------|---------|---------|
D|----------|---------|---------|---------|
A|----------|---------|---------|---------|
E|----------|---------|---------|---------|


e|5/7--7--7-|-5--5--5-|-0-------|
B|----5--5--|---5--5--|-5-------|
G|----------|---------|---------|
D|----------|---------|---------|
A|----------|---------|---------|
E|----------|---------|---------|


Quer fazer uma correção nesta cifra?







    Comentários (0) Postar um Comentário

    Nenhum comentário encontrado. Seja o primeiro!