Cifra da música: Taylor - Jack Johnson

Esse cifra de Jack Johnson já foi acessado por 1105 pessoas.

Comente

A música Taylor fez muito sucesso quando foi gravada por Jack Johnson. Quer conhecer a letra dela? Veja a letra de Taylor e cante.

Veja também o vídeo da música tocada.


Tuning:Standard



INTRO
e|-----------------------------------X------------------------------------------X---|
B|-------X---------------------------X------------------X-----------------------X---|
G|-------X---------------------------X------------------X-----------------------X---|
D|-------X---------------------------X------------------X-xx-1h3p1-3p1----------X---|
A|-x-1h3---x-1h3p1---1---1h3p1-------X-------1-1--x2/3------------3---3p1-------X---|
E|-----------------3-----------3-1-1---x-1h2h3----------------------------0-1-1-----|

e|-------------------------------------------------------------x-xx--0--0-0---|
B|------------------------x--------------------------x----4-4--x-xx--1--1-1---|
G|------------------------x--------------------------x----2-2--x-xx--0--0-0---|
D|------------------------x--3-3/5-5-5p3--2p0--------x----3-3--x-xx--2--2-2---|
A|-x---1---1---1---1--3---x----------------3p0-------x----3-3--x-xx--3--------|
E|--1h3-1h3-1h3-1h3-----------------------------1-1---------------------------|

e|---0---0---0-----------0-----|
B|--/5-5-3-3-1-1---------1-----|
G|---0---0---0---5p3p0---2-----|
D|-----------------------3-----|
A|-----------------------------|
E|-----------------------------|

VERSE AND CHORUS
   the emphasis is on the lower notes so don't play the higher strings as much
and focus on the lower strings
e|---------------------------------------|
B|--11111xxx-11111xxx-11111xxx-----------|
G|--00000xxx-00000xxx-00000xxx-22222xxx--|
D|--22222xxx-00000xxx-22222xxx-33333xxx--|
A|--33333xxx-22222xxx-00000xxx-33333xxx--|
E|-----------------------------11111xxx--|




If taylor finds a better world....

e|---------------------------------------------------------|
B|--1--1-1--1-1-/-3--3-3--3-3-/-6--6-6--6-6-/-8--8-8--8-8--|
G|--0--0-0--0-0-/-0--0-0--0-0-/-0--0-0--0-0-/-0--0-0--0-0--|
D|--2--2-2--2-2-/-4--4-4--4-4-/-7--7-7--7-7-/-9--9-9--9-9--|
A|--3--3-3--3-3-/-5--5-5--5-5-/-8--8-8--8-8-/-10-1010-1010-|
E|---------------------------------------------------------|

OUTRO same as intro


| /  slide up
|   slide down
| h  hammer-on
| p  pull-off
| ~  vibrato
| +  harmonic
| x  Mute note

Lyrics:


The say Taylor was a good girl
Never one to be late
Complain express ideas in her brain
Working on the night shift
Passing out the tickets
You're going to have to pay her
If you want to park here

Well Mommy's little dancer's
Quite a little secret
She's working on the streets now
Never going to keep it

It's quite an imposition
And now she's only wishin'
That she would have listened 
To the words they said
Poor Taylor


She just wanders around
Unaffected by the winter winds air
She pretends that she's somewhere else
So far and clear 
2000 miles from here

Peter Patrick pitter patters on the window
And Sunny's silhouette won't let him in
And poor old Pete's got  nothin
Cuz he's been fallin
But somehow Sunny knows
Just where he's been
He thinks that singing on Sunday's gonna save his soul
Now that Saturday's gone
And sometimes he thinks that he's on his way
but I can see that his brakelights are on

He just wanders around
Unaffected by the winter winds air
And he'll pretend that he's somewhere else
So far and clear 
bout 2000 miles from here


She's such a tough enchalada
Filled up with nada
Given what she gotta give to get a dollar bill
used to be limber chicken
Time has been a ticken
Now she's finger licken to the man
with the money in his pocket
Flying in his rocket
Only stopping by on his way to a better world

If Taylor finds a better world
Then Taylor's going to run away

_______________________________________________________
Contribuição: stefania([email protected])
Correção: Ricardo Morris ([email protected])


Quer fazer uma correção nesta cifra?







    Comentários (0) Postar um Comentário

    Nenhum comentário encontrado. Seja o primeiro!