Cifra da música: A Palavra Certa - Herbert Vianna

Esse cifra de Herbert Vianna já foi acessado por 720 pessoas.

Comente

A música A Palavra Certa fez muito sucesso quando foi gravada por Herbert Vianna. Quer conhecer a letra dela? Veja a letra de A Palavra Certa e cante.

Veja também o vídeo da música tocada.


De: Herbert Vianna, Paula Toller e George Israel
 


Intr.:C G/b G/a A A4 A

Riff 1: 2x
e|-----------0--------------0-------------0------0------------|
B|--------3----3---------3---3----------3---2--3----3---------|
G|------0--------------0--------------2-----------------------|
D|----2--------------0--------------2-------------------------|
A|---3-------------2--------------0---------------------------|
E|------------------------------------------------------------|


D           A            Bm
 Atravesso a noite com um verso
        A
Que não se resolve
D                 A          Bm
 Na outra mão as flores como se
          A
Flores bastassem
     D      A
Eu espero...
    Bm      A
E espero...

D              A          Bm
 Não funcionam luzes, telefones
          A
Nada se resolve
D               A           Bm
 Trens parados, carros enguiçados
   A              D     A
Aviões no pátio esperam
   Bm     A	
E esperam
 
G    Gm                D
    A chave que abre o céu
        Bm					
Daonde caem as palavras				
G						
A palavra certa					
 A						
Que faça o mundo andar				
					e|----7--------------|
(Faça esse Riff 2, junto com	      	B|----7---8----------|
o ultimo acorde A. Isso é um            G|----7--------------|
mini-corde, por isso monte 	RIFF 2  D|----7--------------|		
como se fosse uma pestaninha)           A|-------------------|       
  			                E|-------------------|
					
				
Intr.:C G/b G/a A A4 A (2X)
(Faça o Riff 1 junto com a introdução)


D              A          Bm
 Não funcionam luzes, telefones
          A
Nada se resolve
D               A           Bm
 Trens parados, carros enguiçados
   A              D     A
Aviões no pátio esperam
    Bm    A
E esperam

G    Gm                D
    A chave que abre o céu
        Bm
Daonde caem as palavras
G
A palavra certa
 A
Que faça tudo andar
		e|----7----------|------7-------------|------12-------|
		B|----7---8------|------7---8---------|------12-------|
		G|----7----------|------7-----9-------|------12-------|
	RIFF 3	D|----7----------|------7-------------|---------------|
		A|---------------|--------------------|---------------|
		E|---------------|--------------------|---------------|
		(Faça o Riff 3 junto com o acorde A. Isso é um mini-corde, 
		por isso monte como se fosse uma pestanhinha.)


(A música vai abaixando até o final...
Se fizer esse  Riff 4 de fundo, com
um teclado fica mais idêntico a versão 
original!Com o violão também fica muito
idêntico, por isso ouça bem, para tirar
igual...)
 
			
		e|-----10--12--10----|----10--12--10----|----10--12-9-10-12-10--|
		B|-------------------|------------------|-----------------------|
		G|-------------------|------------------|-----------------------|
	RIFF 4	D|--10---------------|--9---------------|--7--------------------|
		A|-------------------|------------------|-----------------------|
		E|-------------------|------------------|-----------------------|	

(Faça esse Riff 4 com a Introdução abaixo,
ou então use o Riff 1, que fica melhor ainda!)

Intr.:C G/b G/a A A4 A...

_____________________________________


Quer fazer uma correção nesta cifra?







    Comentários (0) Postar um Comentário

    Nenhum comentário encontrado. Seja o primeiro!