Cifra da música: Desafio - Harmonia do Samba

Esse cifra de Harmonia do Samba já foi acessado por 1682 pessoas.

Comente

A música Desafio fez muito sucesso quando foi gravada por Harmonia do Samba. Quer conhecer a letra dela? Veja a letra de Desafio e cante.

Veja também o vídeo da música tocada.


Tom: G

'Mandei meu cavaco chorar'
Solo
E|--------------------------------------|
B|--------------------------------------|
G|---------------4-4-----4-4------------|
D|-------------5-----5-5-----5----------| 
A|--------------------------------------|
E|--------------------------------------|

G	  Em          Am
Se você aceitar o desafio                  |
         D7                        G   
eu vou cantar um samba pra você dançar     |
             Em	      Am			2x
esse swing provoca arrepio                 |
            D7                 G            
Pegue o cavaco o show vai começar          |


               Em     Am      D7       G
Vou pedir pra você vibrarr (vibrar, vibrar)
G              Em     Am
vou pedir pra você mandar
   D7			G
mandar meu cavaco chorar

	'mandei meu cavaco chorar'
Solo
E|--------------------------------------|
B|--------------------------------------|
G|-----------4-----4-4------------------|
D|-------------5-5-----5-5-4------------|
A|--------------------------------------|
E|--------------------------------------|


G      Em         Am
E a galera não vacilou
D7            G
fez a poeira subir
     Em        Am
sem sair do compasso
          D7            G
mais uma vez eu quero ouvir

	'mandei meu cavaco chorar'

repete o solo
	

*** repete a música mais uma vez


Por: Rafal Cavalcanti de Recife ([email protected])



Quer fazer uma correção nesta cifra?







    Comentários (0) Postar um Comentário

    Nenhum comentário encontrado. Seja o primeiro!