Cifra da música: Mil Cairão - Fernandinho

Esse cifra de Fernandinho já foi acessado por 958 pessoas.

Comente

A música Mil Cairão fez muito sucesso quando foi gravada por Fernandinho. Quer conhecer as demais músicas? Conheça as letras das músicas gravadas por Fernandinho e aproveite.

Veja também o vídeo da música tocada.


Tom: B
		

Intro: G#m B Eb


E|-----------------------------------------------------------------------||
B|-----------------------------------------------------------------------||
G|-----------------------------------------------------------------------||
D|------------------9--9--9--9--9----------------------------------------||
A|--11--11--11--11-------------------------------------------------------||
E|----------------------------------11--11--11--11-----------------------||


G#m           E    G#m              E
 Aquele que habita   no seu esconderijo,
G#m           E    G#m      E
 em seus braços descansará.

(Repete as mesmas notas)

 Nenhum mal te sucederá, nem maldição te alcançará."

 diz o Senhor, diz o Senhor, diz o Senhor...

 Levanto os meus olhos, eu sei de onde vem o meu socorro,

 vem do Senhor, vem do Senhor, vem do Senhor...

G#m          E                B                  F#        G#m
 Mil cairão ao meu lado, dez mil cairão à minha direita, mas, eu não,
  E              B          F#
 nunca serei atingido, não!
                 G#m
 nunca serei atingido, não!
  E               B         F#
 nunca serei atingido, não!
                G#m  (E B F#)
 nunca serei atingido... (2x)

G#m
 o O O o o... (4x) ( apenas Bateria na 2x até a 4x )

(REPETE TUDO)

Aquele que abita no seu esconderíjo,
à tua sombra descansará.
Nenhum mal te sucederá, nem maldição te alcançará."
diz o Senhor, diz o Senhor, diz o Senhor...
Levanto os meus olhos, eu sei de onde vem o meu socorro,
vem do Senhor, vem do Senhor, vem do Senhor...

G#m          E                B                  F#        G#m
 Mil cairão ao meu lado, dez mil cairão à minha direita, mas, eu não,
  E              B          F#
 nunca serei atingido, não!
                 G#m
 nunca serei atingido, não!
  E               B         F#
 nunca serei atingido, não!
                 G#m  (E B F#)
 nunca serei atingido... (2x)


 Mil cairão ao meu lado, dez mil cairão à minha direita
  H.N*

E|---19------------------------------------------------------------------||
B|---19------------------------------------------------------------------||
G|---19------------------------------------------------------------------||
D|---19------------------------------------------------------------------||
A|-----------------------------------------------------------------------||
E|-----------------------------------------------------------------------||


G#m          E                B                  F#        G#m
 Mil cairão ao meu lado, dez mil cairão à minha direita, mas, eu não,
  E              B          F#
 nunca serei atingido, não!
                 G#m
 nunca serei atingido, não!
  E              B          F#
 nunca serei atingido, não!
                 G#m  (E B F#)
 nunca serei atingido... (2x)


Quer fazer uma correção nesta cifra?







    Comentários (0) Postar um Comentário

    Nenhum comentário encontrado. Seja o primeiro!