Cifra da música: Eu Fui Comprado - Fernandinho

Esse cifra de Fernandinho já foi acessado por 857 pessoas.

Comente

A música Eu Fui Comprado fez muito sucesso quando foi gravada por Fernandinho. Quer conhecer as demais músicas? Conheça as letras das músicas gravadas por Fernandinho e aproveite.

Veja também o vídeo da música tocada.




Tom: C#
		
E|-------------------------|
B|-------------------------|
G|-------------------------|
D|-------------------------|
A|--4-6--4-6-4-6-4---------|
E|------------------4-6----|
Bbm                       C#
Eu fui comprado,   justificado
G#                  D#
A minha vida   foi paga lá na cruz
Bbm                     C#
 O meu passado,  Tá tudo pago
G#                    D#
 Foi apagado pelo meu Jesus

Bbm                       C#
 Eu fui comprado,   justificado
G#                    D#
 A minha vida   foi paga lá na cruz
Bbm                     C#
 O meu passado,   tá tudo pago
G#                   D#            F#
 Foi apagado pelo meu Jesus
Riff:
(durante todo o refrão)
E|---------------------------------------------|
B|---------------------------------------------|
G|--------------------6------------------------|
D|---6/8--6--8--6--8--6--8---6-----------------|
A|---6/8--6--8--6--8-----8---6---7--6--4--6----|
E|-------------------------------7--6--4--6----|

Todo mundo - pulando, pulando, pulando, pulando

Na presença de Deus…


Quer fazer uma correção nesta cifra?







    Comentários (0) Postar um Comentário

    Nenhum comentário encontrado. Seja o primeiro!