Cifra da música: Santificação - Elaine Martins

Esse cifra de Elaine Martins já foi acessado por 1333 pessoas.

Comente

A música Santificação fez muito sucesso quando foi gravada por Elaine Martins. Quer conhecer as demais músicas? Conheça as letras das músicas gravadas por Elaine Martins e aproveite.

Veja também o vídeo da música tocada.


Tom: A#

Intro: Gm  Eb  Bb  F

Solo Introdução:

                   G                                              G/A#
E|----------------------------------------------------------------------------------------------|
B|-----------------------------------------------8--------8-----8------8-----8---8--------------|
G|--------------------------------------------7-------7------7------7-----7---------------------|
D|---------5--------------5---------------------------------------------------------------------|
A|---------5--------------5---------------------------------------------------------------------|
E|-----3------------3---------------------------------------------------------------------------|


Gm         Eb         Bb        F       Gm       Eb   Bb     F
Santificação (Santificação) Santificação (Santificação) Santificação
Gm
Quando Entrares Na Casa Do Senhor, Teu Deus
Eb9
Tira As Sandálias Dos Teus Pés

E|----------------------------------------------------------------------------------------------|
B|-----------------------------------------------------------Riff 1-----------------------------|
G|--------------7-----------7-------------------------------------------------------------------|
D|-------5----------5---------------------------------------------------------------------------|
A|----------------------------------------------------------------------------------------------|
E|----------------------------------------------------------------------------------------------|

Cm7                       D
Purifica O Teu Coração, O Lugar Santo É

E|----------------------------------------------------------------------------------------------|
B|--------------------------------13---------15---------15--16—15-------------------------------|
G|-------------12-----------12---------14-------14-----------------------------------------------|
D|---10--------------10-----------------------------------------------------Riff 2--------------|
A|----------------------------------------------------------------------------------------------|
E|----------------------------------------------------------------------------------------------|

Gm
Teus Olhos Têm Que Refletir
F
O Brilho Do Senhor Que Há Em Ti
Eb6
Não Se Contamine Com O Mundo Não
D
Diante De Deus, Ninguém Se Esconde Não
Gm
Santo Em, Todo Tempo, Fora E Dentro Do Templo
F
Vigiando Sempre, Sempre Bem Atento
Eb6                                   D
Há Uma Nuvem De Testemunhas Que Te Cercam
Eb D
Toda Hipocrisia Vem À Tona, Te Conserta
Gm
Do Grande Dia Ninguém Pode Escapar
F
O Pecado Encoberto, Ele Vai Mostrar
Eb9
O Juiz Naquele Dia Dará A Sentença
D
Céu Ou Inferno, Qual Tua Recompensa?
Gm
No Grande Dia Até Os Mortos Vão Ressuscitar
F
E Ali Todos Os Joelhos Vão Se Dobrar
Cm7
A Noiva De Cristo É Alvo Como A Neve
D                                                    (D-C-Bb-A-F-F#-G)
Se Hoje Fosse O Grande Dia, Como Estão Tuas Vestes?

Gm Eb9       Bb         F       Gm
Só Entra No Céu Quem Aqui For Fiel
Eb9    Bb         F          Gm
Santificação, Pra Morar Lá Em Sião
Eb9       Bb        F        Gm
Só Entra No Céu Quem Aqui For Fiel
Eb9    Bb     D           Gm   Eb9 Bb F
Vigiai E Orai, O Noivo Logo Vem!

Solo: Gm  Eb  Bb  F


E|----------------------------------------------------------------------------------------------|
B|--------------15b18-15b-17-15-13-11-11-13-13/-15-13-------------------------------------------|
G|----\12-15--------------------------------------------------------15-12-----------------------|
D|----------------------------------------------------------------------------------------------|
A|----------------------------------------------------------------------------------------------|
E|----------------------------------------------------------------------------------------------|




Gm           Eb9                Cm
A Trombeta Tocou E Agora Quem Ficou
D               Gm
Vai Procurar Aqueles Que Ele Criticou

E|----------------------------------------------------------Riff 3------------------------------|
B|-----------13-------13------13/15-------------------------------------------------------------|
G|-----12-------12-------12---------------------------------------------------------------------|


Eb9               Bb
O Pastor Sumiu, E As Irmãs Também
D4           D         Gm
As Crianças Que Cantavam, Cantam Em Jerusalém
Eb9                       Bb
Vão Procurar Nas Igrejas, Mas Não Vão Encontrar
D                    Gm
Onde Estão Crentes Que Vinham Adorar?
Gm              Eb9                     Bb
E Saiu A Notícia Que O Mundo Não Acreditou
D4         D A
Igreja Subiu, Jesus Voltou!

G#m E9       B         F#      G#m
Só Entra No Céu Quem Aqui For Fiel
E9     B         F#          G#m
Santificação, Pra Morar Lá Em Sião
G#m E9       B         F#       G#m
Só Entra No Céu Quem Aqui For Fiel
G#m   E9     B   F#         G#m
Vigiai E Orai, O Noivo Logo Vem!
G#m E9       B         F#       G#m
Só Entra No Céu Quem Aqui For Fiel
G#m   B         F#          ( G#  A# B E F#  B )
Santificação, Pra Morar Lá Em Sião
G#m E9       B        F#       G#m
Só Entra No Céu Quem Aqui For Fiel
E9     B     D#         G#m
Vigiai E Orai, O Noivo Logo Vem!

G#m      E9   B       F#  G#m      E9   B       F#        
Santificação Santificação Santificação Santificação

Final: ( C#  B  A#  F#  G# )


Quer fazer uma correção nesta cifra?







    Comentários (0) Postar um Comentário

    Nenhum comentário encontrado. Seja o primeiro!