Cifra da música: Adulterio - Edson Gomes

Esse cifra de Edson Gomes já foi acessado por 1168 pessoas.

3.00 / 5 - 2
Comente

A música Adulterio fez muito sucesso quando foi gravada por Edson Gomes. Quer conhecer a letra dela? Veja a letra de Adulterio e cante.

Veja também o vídeo da música tocada.


No começo dessa música rola um solinho, ai vai:
e|---------------------------------------------10-9-
b|-7-7-7-8--5-3-0-----0--8-8-8-8-7---10/12--10------
g|----------------0-2-------------------------------
d|--------------------------------------------------
a|--------------------------------------------------
E|--------------------------------------------------

e|--------------------------------------------------
b|-7-7-7-8--5-3-0-----0--8-8-8-8-7------------------
g|----------------0-2-------------------------------
d|--------------------------------------------------
a|--------------------------------------------------
E|--------------------------------------------------





Quer fazer uma correção nesta cifra?







    Comentários (0) Postar um Comentário

    Nenhum comentário encontrado. Seja o primeiro!