Cifra da música: Coração igual ao teu - Diante do Trono

Esse cifra de Diante do Trono já foi acessado por 2931 pessoas.

Comente

A música Coração igual ao teu fez muito sucesso quando foi gravada por Diante do Trono. Quer conhecer a letra dela? Veja a letra de Coração igual ao teu e cante.

Veja também o vídeo da música tocada.


INTRO: ||  Bb2     F/A   |     Dm     Am7     Bb    |      Bb/D    Eb/G     |      F       ||

[SOLO INTRO I]

e|-----------------------------------------------------------|
B|------------------------------15-17-18--17-----------------|
G|-17--14-15-14--------14-15-17--------------17-14-/19-------|
D|---------------15-17---------------------------------------|
A|-----------------------------------------------------------|
E|-----------------------------------------------------------|


e|----------------------------------18h20--20v-----|
B|-17h18p17---------18v---18-17-20-----------------|
G|----------17-------------------------------------|
D|-------------19----------------------------------|
A|-------------------------------------------------|
E|-------------------------------------------------|


        Bb                            F/A
SE TU OLHARES SENHOR   PRA DENTRO DE MIM
      Gm7          C
NADA ENCONTRARÁ DE BOM
    Bb           C/Bb
MAS UM DESEJO EU TENHO
   F   C/E     Dm7
DE SER TRANSFORMADO
   Gm7           F/A
PRECISO TANTO DO TEU PERDÃO
Bb            Csus    C
DÁ-ME UM NOVO CORAÇÃO

F            Fsus  F/A     Bb      Gm7   C
DÁ-ME UM CORAÇÃO IGUAL AO TEU, MEU MESTRE
F            Eb/G  F/A     Bb
DÁ-ME UM CORAÇÃO IGUAL AO TEU
    Csus   C/Bb     Am7  Dm7
CORAÇÃO DISPOSTO A OBEDECER
    Am7               Dm7
CUMPRIR TODO O TEU QUERER
Gm7         Bb/C          F
DÁ-ME UM CORAÇÃO IGUAL AO TEU

[SOLO INTRO II]

e|-----------------------------------------------------6h8--8v-|
B|-----------------------3-5-6--5----------6v-5--6-/8----------|
G|-5--2-3-2-------2-3-5-----------5-2-/7-----------------------|
D|-----------3-5-----------------------------------------------|
A|-------------------------------------------------------------|
E|-------------------------------------------------------------|


   C/E         C            Dm7
ENSINA-ME A AMAR O MEU IRMÃO
    C                            F
A OLHAR COM TEUS OLHOS, PERDOAR COM TEU PERDÃO
Bb            C/Bb
ENCHE-ME COM TEU ESPÍRITO
Am           Dm7           C  Bb
ENDIREITA OS MEUS CAMINHOS, OH DEUS
         Bb/C    1:  F
                 2:  C/D     D
DÁ-ME UM NOVO        CORAÇÃO
G            Gsus   G/B    C       Am7  D
DÁ-ME UM CORAÇÃO IGUAL AO TEU, MEU MESTRE
G            F/A    G/B    C
DÁ-ME UM CORAÇÃO IGUAL AO TEU
     D4   D/C       Bm7  Em7
CORAÇÃO DISPOSTO A OBEDECER
   Bm7                Em7
CUMPRIR TODO O TEU QUERER
Am7          C/D          Em7  D
DÁ-ME UM CORAÇÃO IGUAL AO TEU
Am7          C/D          G  
DÁ-ME UM CORAÇÃO IGUAL AO TEU







Quer fazer uma correção nesta cifra?







    Comentários (0) Postar um Comentário

    Nenhum comentário encontrado. Seja o primeiro!