Cifra da música: Smoke on The Water - Deep Purple

Esse cifra de Deep Purple já foi acessado por 1596 pessoas.

Comente

A música Smoke on The Water fez muito sucesso quando foi gravada por Deep Purple. Quer conhecer a letra dela? Veja a letra de Smoke on The Water e cante.

Veja também o vídeo da música tocada.


(Gillian/Blackmore/Lord/Glover/Paice)

      

E|--------------------------------------------
B|--------------------------------------------
G|------3--5-----3--6--5-----3--5--3----------
D|---5--3--5--5--3--6--5--5--3--5--3--5~~-----
A|---5--------5-----------5-----------5~~-----
E|--------------------------------------------



Refrão:       C G# G F G 
                  C G# G     A# C G A# C# C G A# C A# G 

We all came out to Montreux on the 
  lake Geneva shoreline
To make records with a mobile - 
  we didn't have much time
Frank Zappa & the Mothers 
  were at the best place around
But some stupid with a flare gun
  burned the place to the ground

Smoke on the water - A fire in the sky
Smoke on the water

They burned down the gambling house - 
  it died with an awful sound
Funky & Claude was running in and out, 
  pulling kids out of the ground
When it all was over, 
  we had to find another place
Swiss time was running out - 
  it seemed that we would lose the race

Chorus

We ended up at the Grand Hotel - 
  it was empty, cold and bare
But with the Rolling Trucks Stones thing just 
  outside, we made our music there
With a few red lights an' a few old beds, 
  we made a place to sweat
No matter what we get out of this, 
  I know, I know we'll never forget

Chorus

Cifrada e Transcrita por Marcelo Lacerda

Este é um solo super simples de ser executado. Ouça bem a música p/ pegá-lo legal.
 No finalzinho, onde tem vários pontos (...) é porque é várias vezes, ouça o solo
 p/ sacar legal. E o último bend um pouco longo.
 Comentários, críticas e sugestões: [email protected]



E|-----13-15b----13-15-13-15~----13-15-13----------------
B|------------------------------------------13-13h15-----
G|-------------------------------------------------------
D|-------------------------------------------------------
A|-------------------------------------------------------
E|-------------------------------------------------------


E|------------------------------------------------------------
B|---------8--------------------------------------------------
G|-----10b---10--7--5/3----------17b--15--17b...--------------
D|----------------------5---------------------------15-16-17--
A|------------------------------------------------------------
E|------------------------------------------------------------









Quer fazer uma correção nesta cifra?







    Comentários (0) Postar um Comentário

    Nenhum comentário encontrado. Seja o primeiro!