Cifra da música: Vem, a hora chegou de adorá-Lo - David Quinlan

Esse cifra de David Quinlan já foi acessado por 787 pessoas.

Comente

A música Vem, a hora chegou de adorá-Lo fez muito sucesso quando foi gravada por David Quinlan. Quer conhecer a letra dela? Veja a letra de Vem, a hora chegou de adorá-Lo e cante.

Veja também o vídeo da música tocada.


D      D9             D4     D
Vem, a hora chegou de adorá-Lo.
A    A9                 Em          G
Vem, a hora chegou de dar seu coração.
D    D9         D4      D
Vem, como está e O adore.
A    A9          Em      G
Vem, como está diante de Deus.
D 
Vem

    G	             D
Um dia toda língua irá confessar,
   G	         D
E todo joelho dobrar.
  G	              Bm
Porém Suas riquezas pertencem àqueles
    Em	            A
Que hoje escolhem a Ti


Solo:

E|------------------------
B|------9-------9-9/10/9--
G|-9-11----9/11-----------


E|------------------------
A|---9/10--10b12-10-9-----
G|-11---------------------

E|------------------------
A|-/9------------9-9/10/9-
G|---11-9-11-/11----------

E|------------------------
A|----10-9----------------
G|-11------9--------------

faz 2x isso e no final faz 
isso

E|------------------------
A|------9-----------------
G|-9-11-------------------





Quer fazer uma correção nesta cifra?







    Comentários (0) Postar um Comentário

    Nenhum comentário encontrado. Seja o primeiro!