Cifra da música: Death Note - David Filison

Esse cifra de David Filison já foi acessado por 144 pessoas.

Comente

Tom: A (com acordes na forma de )

      


E|-9--------9-----10-9--------9-----10-9--------9-----10-9--------9-----10-9--------9--------9-|
B|---8---10---8--------8---10---8--------8---10---8--------8---10---8--------8---10---8---10---|
G|-----8--------8--------8--------8--------8--------8--------8--------8--------8--------8------|
D|---------------------------------------------------------------------------------------------|
A|---------------------------------------------------------------------------------------------|
E|---------------------------------------------------------------------------------------------|

   ex tempo = 133


E|-----10-9---|9-----------------9h20p9---------------------9h20h21p20p9-----------------------|
B|-8--------8-|--8-------------8--------8-----------------8--------------8---------------------|
G|---8--------|----8---------8------------8-------------8------------------8-------------------|
D|------------|------9-----9----------------9---------9----------------------9-----------------|
A|------------|--------9h6--------------------11h9h10--------------------------10h7------------|
E|------------|---------------------------------------------------------------------8h7~-------|

              ^ ex tempo = 135                 


E|--------------------------------------------------------------6h10h20-----------------12~----|
B|----------------------------------7h11p7--------------------7---------7----------------------|
G|--------------------------------7--------7----------------7-------------7--------------------|
D|-7-6-5------------------------8------------8------------8-----------------8------------------|
A|-------9-8-7-6------------5h9----------------9------5h9---------------------9----------------|
E|---------------10-9-8-7-6----------------------10p6---------------------------10~--0---------|


E|-12-11-10-11-10-9-10-9-8-9-8-7---------------------------------------------------------------|
B|-------------------------------11-10-9-8-----------------------------------------------------|
G|-----------------------------------------11-10-9-8-------------------------------------------|
D|---------------------------------------------------12-11-10-9------------------------------9-|
A|--------------------------------------------------------------13-12-11-10----------------9---|
E|--------------------------------------------------------------------------14-13-12-11-10-----|


E|--------------------------------------------------------------------------------2-3-4-5-1h22-|
B|----------------------------------------------------------------4-5-6-7-3-4-5-6--------------|
G|------------------------------------------------5-6-7-8-4-5-6-7------------------------------|
D|-------------------------------7-8-9-10-6-7-8-9----------------------------------------------|
A|----------9-10-11-12-8-9-10-11---------------------------------------------------------------|
E|-11-12-13------------------------------------------------------------------------------------|


E|---------------|-9h13h17-21p17-13p9/8-12-16h20p16-12p8/7-11-15-19p15h12p7/6-10-14-18-14-10h6-|
B|------------10-|-----------------------------------------------------------------------------|
G|---------10----|-----------------------------------------------------------------------------|
D|------11-------|-----------------------------------------------------------------------------|
A|-8h12----------|-----------------------------------------------------------------------------|
E|---------------|-----------------------------------------------------------------------------|

                 ^ ex tempo = 144  


E|---------------------------------------------------------------------------------------20~---|
B|-15h19p15-11-7/6h10h14h18-14-10-6-5-9-13h17p13p9p5-------------------------------------------|
G|---------------------------------------------------13h17-13-9-5/4-8-12-16-12-8-4/3-----------|
D|---------------------------------------------------------------------------------------------|
A|---------------------------------------------------------------------------------------------|
E|------------------------------------------------------------------------------------0--------|

Quer fazer uma correção nesta cifra?







    Comentários (0) Postar um Comentário

    Nenhum comentário encontrado. Seja o primeiro!