Cifra da música: Crash Into Me - Dave Matthews Band

Esse cifra de Dave Matthews Band já foi acessado por 638 pessoas.

Comente

A música Crash Into Me fez muito sucesso quando foi gravada por Dave Matthews Band. Quer conhecer a letra dela? Veja a letra de Crash Into Me e cante.

Veja também o vídeo da música tocada.


*Essa primeira parte são os baixos que serão combinados com os acordes
E|----------------------------------------
B|----------------------------------------
G|----------------------------------------
D|----------------------------------------
A|-4----4--0---0--2----2-----------------2
E|-------------------------0----4----4----


*Essa, faz parte da introdução da música e da letra

                                              You´ve got your...
E|----0---0-0-0-------0--0-0-------0--0-0-0------0--0-0-0--------0--0-0-0--
B|----0---0-0-0-------0--0-0-------0--0-0-0------0--0-0-0--------0--0-0-0--
G|----4---4-4-4-------4--4-4-------4--4-4-4------4--4-4-4--------4--4-4-4--  
D|----2---2-2-2-------2--2-2-------2--2-2-2------2--2-2-2--------2--2-2-2--
A|-4-------------4-0----------0-2-----------2-----------------4------------
E|---------------------------------------------0----------0----------------
*Essa é a parte do 'Crash into me'

'crash                  into me..'
  E    Ab   A    B
-------4----5----7-----0----------
-------4----5----7-----0----------
--1----5----6----8-----1----------
--2----6----7----9-----2----------
--2----6----7----9-----2----------
--0----4----5----7-----0----------

  Baby          and I come into you...
E|----------x--x-x-x...
B|----------3--3-3-3...
G|----------2--2-2-2...
D|----------x--x-x-x...
A|----------x--x-x-x...
E|-------4--4--4-4-4...

  In a boys dream
E|---0-0-2-0-0-0-2-|-0-0-0-4-0-0-0-2--|    
B|---5-5-5-5-5-5-5-|-5-5-5-5-5-5-5-5--|   
G|---4-4-4-4-4-4-4-|-4-4-4-4-4-4-4-4--|  
D|-----------------|------------------|
A|-----------------|------------------|
E|-----------------|------------------|


 


Quer fazer uma correção nesta cifra?







    Comentários (0) Postar um Comentário

    Nenhum comentário encontrado. Seja o primeiro!