Cifra da música: Vem Me Dizer - Danni Carlos

Esse cifra de Danni Carlos já foi acessado por 443 pessoas.

Comente

A música Vem Me Dizer fez muito sucesso quando foi gravada por Danni Carlos. Quer conhecer as demais músicas? Conheça as letras das músicas gravadas por Danni Carlos e aproveite.


Tom: D#

Dedilhado

        Cm
E|-------------------------------|
B|-------------------------------|
G|-------0-------0-------0-------|
D|---1-------1-------1-------1---|
A|-3---3---3---3---3---3---3---3-|
E|-------------------------------|


        Ab
E|-------------------------------|
B|-------------------------------|
G|-------0-------0-------0-------|
D|-------------------------------|
A|---6-------6-------6-------6---|
E|-4---4---4---4---4---4---4---4-|


        F
E|-------------------------------|
B|-------------------------------|
G|-------0-------0-------0-------|
D|-------------------------------|
A|---3-------3-------3-------3---|
E|-1---1---1---1---1---1---1---1-|


        G
E|-------------------------------|
B|-----------------------0-------|
G|-------0-------0---------0---0-|
D|---0-------0-------0-----------|
A|-------------------------------|
E|-3---3---3---3---3---3-----3---|


---Intro: Cm (2x)

---Verso 1:

Cm
Quer me dizer
Que as palavras
                Ab
Não se aguentam mais
Em minha boca
Que minha marra
              F
E a minha farra
E a fama de louca
                          G
São os motivos pra você agir assim

Cm
Vem me falar
Que os meus olhos
          Ab
Sempre estão em outro lugar
Que minha condição
       F
É só querer namorar
                    G
Quando a liberdade só vale pra um



---Pré-refrão:

        Cm
Eu sou sensível
Não grita que eu choro
    Ab
Eu sou terrível
Quando as regras não vem
           F
Mas eu me jogo quando muitos pensam
         G                 F
E nunca penso quando você tem



---Refrão:


Cm
Amor pra me dar
 Ab
Calor pra me dar
   F
A mão pra me dar
   G
Duvido eu soltar
   F
Duvido eu soltar
(2x)


---Verso 2:

Cm
Me dediquei
O quanto eu podia
  Ab
Até bife fritei
Ao som da melodia
        F
Que eu fiz pra você
Enquanto você via
       G            F
O seu filme passar

   Cm
Se me distraí
Desculpa alguma coisa
       Ab
Foi o meu dda
Mas o meu coração compensa
F                            G   F
Não vai falta carinho pra você



---Pré-refrão:

        Cm
Eu sou sensível
Não grita que eu choro
    Ab
Eu sou terrível
Quando as regras não vem
           F
Mas eu me jogo quando muitos pensam
         G                 F
E nunca penso quando você tem



---Refrão:


Cm
Amor pra me dar
 Ab
Calor pra me dar
   F
A mão pra me dar
   G
Duvido eu soltar
   F
Duvido eu soltar
(2x)


---Ponte/Solo: Cm Ab F G F (2x)
*detalhe que no acorde de G é tocado apenas a metade do compasso em G e a segunda metade em F



---Refrão:


Cm
Amor pra me dar
 Ab
Calor pra me dar
   F
A mão pra me dar
   G
Duvido eu soltar
   F
Duvido eu soltar
(2x)

Quer fazer uma correção nesta cifra?







    Comentários (0) Postar um Comentário

    Nenhum comentário encontrado. Seja o primeiro!