Cifra da música: O Violeiro Da Praça - Danne Strauss

Esse cifra de Danne Strauss já foi acessado por 109 pessoas.

Comente

Tom: C

Riff de introdução

                                          3X                     Am7 (E7 Am7) 2x
E|---------------------------------|--------------|----------------|
B|---------------------------------|--------------|----------------|
G|---------------------------------|--------------|----------------|
D|--------5-7-5--------------------|--------------|----------------|
A|--5h6h7-------7-5--7-5-0-3-0-3---|--------------|----------------|
E|-------------------------------5-|-5-8-5-7-5-0-5|-5-8-5-7-8-7-5--|


         E7                                    Am7
Ele é um cara surtado, todo dia sai com seu violão
 E7                                   Am7
Slide improvisado, anéis e palheta na mão
E7                                    Am7
Canta porque gosta, canta só por diversão
E7                                Am7
Canta pra animar o dia a dia do povão

E7                                      Am7
Sempre se empolga quando ouve alguém gritar (Toca Raul!!!)
      E7                                      Am7
Toca até não poder mais, toca até os dedos sangrar
    E7                                        Am7
E o sangue que jorra ensanguenta todo piso no chão
        E7                                    Am7
Traz no peito muito amor e uma saudade no coração

       E7                            Am7
Do que nunca viveu, talvez nunca viverá
     E7                                         Am7
Sobrevive cantando, fazendo os outros rir ou chorar

  E7                                            Am7
É fã de carteirinha e sempre faz tributos à Legião
E7                                          Am7
Cássia, Zé Ramalho, Caetano, Nando Reis e Barão

  E7                                       Am7
É só mais um menino que queria cantar como Beatle George
          E7                                    Am7
Mais um canário do reino tocando um dissonante acorde

Solo 2x

E|----------------------------------------------------|
B|----------------------------------------------------|
G|--7x-7-7h9-9-9-9-9-7--9--7-9--7-9-9/12-9----9-7-7x--|
D|----------------------------------------10----------|
A|----------------------------------------------------|
E|----------------------------------------------------|


E|----------------------------------------------------|
B|----------------------------------------------------|
G|--7x-7-7h9-9-9-9-9-7--9--7-9-7-----------9-7-7x-----|
D|-------------------------------10-7-7h10------------|
A|----------------------------------------------------|
E|----------------------------------------------------|


Repete tudo a partir de:

Sempre se empolga quando ouve... até ... canário do reino tocando um dissonante acorde.

Quer fazer uma correção nesta cifra?







    Comentários (0) Postar um Comentário

    Nenhum comentário encontrado. Seja o primeiro!