Cifra da música: Refúgio - Dallas Company

Esse cifra de Dallas Company já foi acessado por 531 pessoas.

Comente

A música Refúgio fez muito sucesso quando foi gravada por Dallas Company. Quer conhecer as demais músicas? Conheça as letras das músicas gravadas por Dallas Company e aproveite.

Veja também o vídeo da música tocada.


intro: abafado e soltando as notas D e E

               
                 repete duas vezes 
                                                          
      B       D      E      G           A                                                                             
e|----------------------------------------------------|
B|----------------------------------------------------| 
G|-----4-------7------9---------4-5-4---------4-5-4---|
D|-----4-------x------x------5-----------7------------|
A|-----2-------5------7------5-----------7------------|    
E|---------------------------3-----------5------------|    
                                                  
no final da segunda vez faz            
A----------4--5--4------------------------------------|
E----5--7-----------5---------------------------------|
            
                              hameron       hameron    



( B - D-E - G - A )                                                                        
Em um certo dia, aquele dia, nada se encaixava..e eu estava com problemas 
São problemas que me corroem, me irritam e me fazem chorar. 
 G       A
Diversos focos como! 

 B               D         E
Meu lar...as pessoas que eu amo 
G                A
E entre meus amigos, .... 
  B                          G
NADA , aonde deveria ser melhor.. 
             A           B          A
Nenhum conselho, Nenhuma saída E só ao seu lado... 
D          G
Quando entre os seus braços; 
B             D          A       E
É que eu consigo desabafar...... e esquecer ...

     B      D     E      G
e-----------------------------------------------------------------------------|
B-----------------------------------------------------------------------------|
G----4------7-----9-------------12--11-------14--12--11-9----14--12--11--9----|
D----4------x-----x------5------x---x-----------------------------------------|
A----2------5-----7------5------10--9--------12--10--9--7----12--10--9---7----|
E------------------------3----------------------------------------------------|

                   e esquecer......


   tres vezes       
( B - A - G - A)   B - D



   B                  D
aonde eu vou me esconder dos meus medos... ...
E            G                  A
aonde eu me 'armo' para encará-los...



     B      G     F#     G     A
e----------------------------------|
B----------------------------------|
G----4------12----11---------------|
D----4------x-----x------5-----7---|
A----2------10----9------5-----7---|
E------------------------3-----5---|


 G       A
Diversos focos como! 

 B              
Meu lar...as pessoas que eu amo 
G                A
E entre meus amigos, .... 
  B                          G
NADA , aonde deveria ser melhor.. 
             A           B          A
Nenhum conselho, Nenhuma saída E só ao seu lado... 
D          G
Quando entre os seus braços; 
B             D          A       E                   .....B  D E      B.....
É que eu consigo desabafar...... e esquecer ...


Quer fazer uma correção nesta cifra?







    Comentários (0) Postar um Comentário

    Nenhum comentário encontrado. Seja o primeiro!