Cifra da música: Doctor Who Theme - Daddy Long

Esse cifra de Daddy Long já foi acessado por 390 pessoas.

Comente

Tom: D

Solo

E|---1-0--3-------12-8-0-3-1-0---0---------1-0--|
B|-----------------------------3---1------------|
G|----------------------------------------------|
D|----------0-2----------------------2-3-2------| 2X
A|-2--------------------------------------------|
E|----------------------------------------------|


E|---1-0--3-0--3-0--3-0--3-0--3-0--3-0--3-0--3-0--|
B|------------------------------------------------|
G|------------------------------------------------|
D|------------------------------------------------|
A|-2----------------------------------------------|
E|------------------------------------------------|


E|---0----------5-3-1-3---5-3-1-3---0------------|
B|-1---3-1-0-1~---------1---------1---3--1-0-1~--|
G|-----------------------------------------------|
D|-----------------------------------------------|
A|-----------------------------------------------|
E|-----------------------------------------------|


Again


E|---1-0--3-------12-8-0-3-1-0---0---------1-0--|
B|-----------------------------3---1------------|
G|----------------------------------------------|
D|----------0-2----------------------2-3-2------| 2X
A|-2--------------------------------------------|
E|----------------------------------------------|


E|---1-0--3-0--3-0--3-0--3-0--3-0--3-0--|
B|--------------------------------------|
G|--------------------------------------|
D|--------------------------------------|
A|-2------------------------------------|
E|--------------------------------------|

Quer fazer uma correção nesta cifra?







    Comentários (0) Postar um Comentário

    Nenhum comentário encontrado. Seja o primeiro!