Cifra da música: Badge - Cream

Esse cifra de Cream já foi acessado por 591 pessoas.

Comente

A música Badge fez muito sucesso quando foi gravada por Cream. Quer conhecer a letra dela? Veja a letra de Badge e cante.

Veja também o vídeo da música tocada.


Riff 01
 ----------------------------------------
 ----------------------------------------
 ----------------------------------------
 --5-9-5/7-7-7-7-7-----------------------
 7-3-7-3/5-5-5-5-5-----------------------
 5---------------------------------------


Lick01

 ------7----------------7------------------
 ----3-5---5p0-----3----5------------------
 2/4-----------2/4-------------------------
 -------------------2----------------------
 ------------------------------------------
 ------------------------------------------

 

Lick02
 ----------------------|   
 ------------1---------|   
 ----2-----0------0--0-|   
 0-4-----2------0------|   
 ------3------2--------|   
 ------------------3---|   

Lick03
 --------------------------------
 ----3---------------1----------- 
 --2---2-----2-----0-------0---0-
 0-------0-4-----2-------0-------
 --------------3-------2---------
 ----------------------------3---



SOLO:
 --------------------------------------------------------
 b14r-b14r-b14-b14~-13--------13-----------------15---13-
 ---------------------14-12/14--1412-10--12/14--
 ---------------------------------------12---------------
 --------------------------------------------------------
 --------------------------------------------------------

 --------------------------------------------------------
 b17r-15~---b19-b19-b19-18-b19-18~-15----b17r-15-17-15-17
 --------16---------------------------16-----------------
 --------------------------------------------------------
 --------------------------------------------------------
 --------------------------------------------------------


 --------------------------------------------------------
 ------15-b17r-15-17-15~-----------------18-b20r-18------
 14-16-------------------14h16-/19-/19~------------19-19-
 --------------------------------------------------------
 --------------------------------------------------------
 --------------------------------------------------------

 
 
 --------------------------------------------------------
 20-18----b20r-18~----b20-b20-b20-b20-b20-b20r-18--------
 ------19----------19-----------------------------19----
 --------------------------------------------------------
 --------------------------------------------------------
 --------------------------------------------------------



 ----------b17------------b17r---------------------------
 ----15-b17-----b17r-15~------b17r-15-12-15~-12-15-15----
 /16-----------------------------------------------------
 --------------------------------------------------------
 --------------------------------------------------------
 --------------------------------------------------------


 ---------------13b---14b-13-14b-13-14b-13-14b-13-14b----
 12-15-15-15-12------------------------------------------
 --------------------------------------------------------
 --------------------------------------------------------
 --------------------------------------------------------
 --------------------------------------------------------


 --------------------------------------------------------
 /12-12h15p12----------13--------------------------------
 -------------14---/14----1412-10----------------------
 -----------------------------------12-12~---------------
 --------------------------------------------------------
 --------------------------------------------------------


 --------------------------------------------------------
 -------------13--------------13-------------------------
 -1012/14-----1012/14----1412-10----------------
 -----------------------------------------10-12-10-12----
 -----------------------------------------------------12~
 --------------------------------------------------------
 

 Talkin bout a girl that looks quite like you

 ----12-----12-12-----14----14-15------------------------
 /12----/12-------/12----12-------/12-12-12-10----10~----
 ----------------------------------------------12-----12-
 --------------------------------------------------------
 --------------------------------------------------------
 --------------------------------------------------------

 She didn't have the time to wait in the queue
 --b10r-7------------------------------------------------
 ---------b10r-5-3---------------------------------------
 --------------------5-2---5-2---/5~---------------------
 ------------------2-----2-----2-------------------------
 --------------------------------------------------------
 --------------------------------------------------------


 She cried away her life, said she fell out the cradle.
 -----5-3----7-------------------------------------------
 -3/5-3-1-/5-5-------------------------------------------
 -2/4-----/4---------------------------------------------
 --------------------------------------------------------
 --------------------------------------------------------
 --------------------------------------------------------





Quer fazer uma correção nesta cifra?







    Comentários (0) Postar um Comentário

    Nenhum comentário encontrado. Seja o primeiro!