Cifra da música: Menina Me Dá o Seu Amor (versão ao vivo) - Chiclete Com Banana

Esse cifra de Chiclete Com Banana já foi acessado por 1000 pessoas.

Comente

A música Menina Me Dá o Seu Amor (versão ao vivo) fez muito sucesso quando foi gravada por Chiclete Com Banana. Quer conhecer as demais músicas? Conheça as letras das músicas gravadas por Chiclete Com Banana e aproveite.

Veja também o vídeo da música tocada.


(Bell Marques/ Wadinho Marques/ Tonho Matéria)

Tom: G

OBS.: Para quem pretende seguir fielmente as batidas de Bell aconselho acordes com pestana
e uso da palheta.

Intro: (G D7 G D C G)
e:-----------------------------------------|----------------------------------------|-
B:-----------------------------------------|------3-3------------------3-3----------|-
G:------0-0-----------------0-0------------|--2-4-------2-4--------2-4-------2-4----|-
D:--0-2------0-2--------0-2------0-2-------|----------------0--------------------0--|-
A:-----------------------------------------|----------------------------------------|-
E:---------------3-------------------3-----|----------------------------------------|-

-------------------------------------------|-----------------------------------------
-------------------------------------------|------3-3--------------------------------
--------0-0-----------------0-0------------|--2-4-------2-4--------------------------
----0-2------0-2--------0-2------0-2-------|----------------0------0h2-0-------------
-------------------------------------------|-----------------------------3-2---------
-----------------3-------------------3-----|---------------------------------3-------
h = hammer-on

  
          G
Posso sentir 
                      D
Chego a tocar na sua mão 
                            Am  C
Cantar, cantar a beleza da vida 
           D           G
Me faz querer seu coração 


           G
Por que será 
                                D
Que a noite é tão linda como você 
                            Am  C
Olhar o mar e o mistério da lua 
          D          G
E deixar tudo acontecer 

  
G
Daqui do alto 
        D
Eu te beijo, eu te beijo 
Daqui do alto 
         G
Eu te desejo, eu te desejo 
Daqui do alto 
       D
Eu te quero, eu te quero 
Daqui do alto 
        G              G7
Me desespero, me desespero 

  
                   C             D
Menina me dá seu amor, ai, ai, ai 
       C           G
Madrugada já clareou 
     D7    G        D7    G
Clareou oh oh, clareou oh oh

(G)  
           D7
Parece que tudo termina 
       G
Em carinho 
            D7
Você é tão linda, e eu 
        G
Tão sozinho 
            D7
A onda te trouxe 
           G
Sereia do mar 
             D7
Princesa do céu 
           G
Quero namorar



Quer fazer uma correção nesta cifra?








    Comentários (0) Postar um Comentário

    Nenhum comentário encontrado. Seja o primeiro!