Cifra da música: Debaixo dos Caracóis dos Seus Cabelos - Caetano Veloso

Esse cifra de Caetano Veloso já foi acessado por 2341 pessoas.

4.00 / 5 - 1
Comente

A música Debaixo dos Caracóis dos Seus Cabelos fez muito sucesso quando foi gravada por Caetano Veloso. Quer conhecer a letra dela? Veja a letra de Debaixo dos Caracóis dos Seus Cabelos e cante.

Veja também o vídeo da música tocada.


Solo:
E|-----------------------------11--9-9-------9---11-12-14-16-16-16-14-14-12-11--11-9-------------
B|-9-9-9-9-------------9-10-12---------12-12-----------------------------------------12--9-9-10--
G|---------11-11--9-11---------------------------------------------------------------------------
D|-----------------------------------------------------------------------------------------------
A|-----------------------------------------------------------------------------------------------
E|-----------------------------------------------------------------------------------------------

E|---------------------------------12------------------------------------------------------------
B|-9------9-----12-12-12-12-12--12----12--10-9-------12-10-9-10-9-----------------12-9-12-12-9---
G|---11-----11---------------------------------11-9---------------11-9----9-11-9-----------------
D|---------------------------------------------------------------------11------------------------
A|-----------------------------------------------------------------------------------------------
E|-----------------------------------------------------------------------------------------------

E|---------------------------------------------
B|-10-9-10-9--9-12-------9-12------------------
G|-----------------11-9-------11-9----9-11-9---
D|---------------------------------11----------
A|---------------------------------------------
E|---------------------------------------------



    E
Um dia a areia branca
      A
Seus pés irão tocar
   B
E vai molhar seus cabelos
  E      A      E  B
A água azul do mar
   E
Janelas e portas vão se abrir
     A
Pra ver você  chegar
  B
E ao se sentir em casa
    E     A      E  B
Sorrindo vai chorar

   E                             A
Debaixo dos caracóis dos seus cabelos
		     B
Uma história pra contar
		    E    A E B
De um mundo tão distante
   E				 A
Debaixo dos caracóis dos seus cabelos
		  B
Um soluço e a vontade
		     E     A E B
De ficar mais um instante

As luzes e o colorido
Que você vê agora
Nas ruas por onde anda
Na casa onde mora
Você olha tudo e nada
Lhe faz ficar contente
Você só deseja agora
Voltar pra sua gente

Você anda pela tarde
E o seu olhar tristonho
Deixa sangrar no peito
Uma saudade um sonho
Um dia vou ver você
Chegando num sorriso
Pisando a areia branca
Que é seu paraíso




Quer fazer uma correção nesta cifra?







    Comentários (0) Postar um Comentário

    Nenhum comentário encontrado. Seja o primeiro!