Cifra da música: Wanted Dead Or Alive - Bon Jovi

Esse cifra de Bon Jovi já foi acessado por 2155 pessoas.

Comente

A música Wanted Dead Or Alive fez muito sucesso quando foi gravada por Bon Jovi. Quer conhecer a letra dela? Veja a letra de Wanted Dead Or Alive e cante.

Veja também o vídeo da música tocada.


(Ideal para Violão/Guitarra de 12 cordas)


Intro: 
   
e |-------13---------12----------10---------8--------5--------3---------1--|
B |------------------------------------------------------------------------|
G |----14----1412------1210-------109-------95------54------4--42----| 2x
D |--0-------------0-----------0----------0--------0--------0--------------|
A |------------------------------------------------------------------------|
E |------------------------------------------------------------------------|

       C     F    Dadd2           C     F    Dadd2
e |-----------------0-------|------------------0-------|
B |-------------------3-----|--------------------3-----|
G |---------------------2---|----------------------2---|
D |--------0-3-0------------|---------0-3-0------------|
A |--0-0-3------------------|---0-0-3------------------|
E |-------------------------|--------------------------|



      D         (D/Dsus4/Dadd9)  C                   G
  It's all the same,             only the names will change.
     C     G                 C  F     D
  Ev'ryday,  seems we're wasting away.
      D         (D/Dsus4/Dadd9   C                   G
  Another place,                  where the faces are so cold.
     C        G              C  F     D
  I travel all night just  get back  home. 

                                                 _
         C      G       F             D  Dadd2    |
  I'm  a cowboy,   on a steel horse I ride.       |
         C   G      F          D  Dadd2           | REFRÃO
  I'm wanted,  dead or alive.                     |
     C   G      F          D  Dadd2               |
  Wanted,  dead or alive.                        _|


      D             (D#4/D/Dadd9)    C                  G      
  Sometimes I sleep,             sometimes it's not for days.
  C                 G   C             F        D
  And people I meet,  always go their seperate ways.
      D             (D#4/D/Dadd9)    C          G
  Sometimes you tell the day by the bottle that you drink.
  C                    G       C       F      D
  And times when you're  alone all you do is drink.


Refrão

Intro 2x

SOLO:                  
                                  ah   ah   ah   ah
e |--------------------------------------------------------|
B |--------------------------------------------------------|
G |--------------------------------------------------------|
D |-----------------------------5(b)7-(b)7-(b)7-(b)7-5-3~--|
A |-x--53/5---5-3-/5~---3--5-----------------------------|
E |--------------------------------------------------------|

 
                                                               ah
e|------------13-15---15(b)17~-15-13-15(b)17~~--------------------------------|
B|------13-15-----------------------------------------------------------------|
G|12-14-------------------------------------------------------------------5/7~|
D|-----------------------------------------------------5(b)7~--------75--5/7~|
A|------------------------------------------------0--0---------0--0--53--3/5~|
E|----------------------------------------------------------------------------|

            ah         ah ah ah ah                 ah ah ah ah
e |------------------------------------------------------------|
B |------------------------------------------------------------|
G |------------------------------------------------------------|
D |----------3'---------3--5-5'-3~-----0^3^0--------3-5'-5-3~--|
A |--x--3-5-----5--3-5-----------------------3^0-5------------|
E |------------------------------------------------------------|

                      ah                      ah     ah
e |---------------------------------------------------------------------------|
B |----------13----------------------13---------------------------------------|
G |--12(b)14-----12(b)14-10--12(b)14----(b)14-12-10--10~---5-5-5-5-5-5--5/7--|
D |---------------------------------------------------------5-5-5-5-5-5--5/7--|
A |---------------------------------------------------------3-3-3-3-3-3--3/5--|
E |---------------------------------------------------------------------------|


Refrão


PASSAGEM:

e |--10-10-10-10-10-10-10--13(b)15--13^10----------------|
B |--10-10-10-10-10-10-10-----------------10---108/10~--|
G |--11-11-11-11-11-11-11--------------------------------|
D |------------------------------------------------------|


 D                   (D#4/D/Dadd9)   C                    G      
I walk these streets,              a loaded six string on my back.
  C              G         C         F       D
I play for keeps,  cause I might not make it back.
 D             (D#4/D/Dadd9)      C     G
I've been everywhere, still I'm standing tall.
     C               G              C      F    D
I've seen a million faces, and I've rocked them all.


Refrão 2x

Intro 2x => Dmaj é o último acorde



::::::::: TABLATURA PARA OS VERSOS E REFRÃO :::::::::

VERSOS:

      D         (D/Dsus4/Dadd9)   C                   G
e |---2-------2-----2-3-2-0--0^2-----------3---------------3-------|
B |---3-------3-----3-3-3-3--3-------------3---------------3-------|
G |---2-------2-----2-2-2-2--2----0--------0---------------0-------|
D |---0-------0-----0-------------2--------------------------------|
A |-------------------------------3--------------------------0^2---|
E |---------------------------------------------------3------------|
  It's all the same,              only the names will change.
  Another town,                   where the faces are so cold.


     C        G                C  F     D
e |------3-------3----------------1-----0-----0^2----------|
B |------3-------3-------------1--1-----3-----------3------|
G |------0-------0-------------0--2-----2-------------2----|
D |--2-------------------------2--3-----0---------0-----0--|
A |--3--------2----0^2---------3---------------------------|
E |-----------3--------------------------------------------|
    Ev'ryday,     seems we're wasting away.
  I travel all night just    get back  home.           I'm


REFRÃO:                                        

      C        G              F             D        Dadd2 
e |--------3---3--------------------1----------2-----0----------|
B |--------3---3---3----------------1------------------3--------|
G |---0--------0--------------2-----2--------------------2------|
D |---2--------0--------------3-------------0-----0--------0----|
A |---3--------------0^2------3---------------------------------|
E |------------3------------------------------------------------|
    a cowboy,            on a steel horse I ride.          I'm 


e |--------3---3----------------------2---0^2----------|
B |--------3---3---3-----------------------------3-----|
G |---0--------0-----------------------------------2---|
D |---2--------0---------------0--3'--0-------0------0-|
A |---3--------------0^2--0^3'-------------------------|
E |------------3---------------------------------------|
     wanted,               dead or alive.
     wanted,               dead or alive.


Por: Daniella Zile Barreto



Quer fazer uma correção nesta cifra?







    Comentários (0) Postar um Comentário

    Nenhum comentário encontrado. Seja o primeiro!