Cifra da música: Zero the zero - Black Sabbath

Esse cifra de Black Sabbath já foi acessado por 588 pessoas.

Comente

A música Zero the zero fez muito sucesso quando foi gravada por Black Sabbath. Quer conhecer as demais músicas? Conheça as letras das músicas gravadas por Black Sabbath e aproveite.

Veja também o vídeo da música tocada.


Riff A
E-|-----------------------------------------|
B-|-----------------------------------------|
G-|-----------------------------------------|
D-|-----------------------------------------|
A-|-----------------------------0-----------|
E-|--2--2--0--1--2--2--0--1--2-----2--0--1--|

Riff B
E-|-----------------------------------------|
B-|-----------------------------------------|
G-|-----------------------------------------|
D-|-----------------------------------------|
A-|-----------------------------2-----------|
E-|--4--4--2--3--4--4--2--3--4-----4--2--3--|

Riff C
E-|--------------------------------------|
B-|--------------------------------------|
G-|-------------6----4-------------------|
D-|-------------6----4-------4----6------|
A-|-------------4----2----2--4----6------|
E-|-4--4--2--3--4----2----0--2----4------|





Quer fazer uma correção nesta cifra?







    Comentários (0) Postar um Comentário

    Nenhum comentário encontrado. Seja o primeiro!