Cifra da música: Eva - Banda Eva

Esse cifra de Banda Eva já foi acessado por 1725 pessoas.

Comente

A música Eva fez muito sucesso quando foi gravada por Banda Eva. Quer conhecer a letra dela? Veja a letra de Eva e cante.

Veja também o vídeo da música tocada.


Solo:
|-------------------15--17--19--17--15-15------------------------|
|--17/19---17/19---------------------------19----15-15/17-17-----|
|----------------------------------------------------------------|
|----------------------------------------------------------------|
|----------------------------------------------------------------|
|----------------------------------------------------------------|

|----------------------------12b-12~~----------------------------|
|--19-20-19--17--15--13/14-----------13-14-15--15-14--1211------|
|----------------------------------------------------------------|
|----------------------------------------------------------------|
|----------------------------------------------------------------| 
|----------------------------------------------------------------|
     G

Meu amor
Olha só
                A 
Hoje o sol não apareceu

    G
É o fim               D      D4  D 
Da aventura humana na terra

              G
Meu planeta Deus            A
fugiremos nós dois na arca de Noé

                     G
Mas olha bem, meu amor
                       D
O final da odisséia terrestre
             Em
Sou Adão e você será...

              D
Minha pequena Eva, (Eva)
                       A/C# Bm
O nosso amor na última astronave, (Eva)

                    A     G  Em
Além do infinito eu vou voar

        A4     A
Sozinho com você

             D 
E voando bem alto (Eva)
                        A/C#   Bm
Me abraça pelo espaço de um instante (Eva)

                       A     G      Em
Me cobre com teu corpo e me dá, hum

         A4     A
A força pra viver

                        Bm   A
E pelo espaço de um instante
                G
Afinal, não há nada mais

       E4               G           
Que o céu azul (pra gente voar)
                           A
sobre o Rio, Beirute ou Madagascar

       G                      D
Toda a terra reduzida a nada, nada mais

                     G
E a minha vida é um flash
                          A
de controles botões anti-atômicos

                         G
Mas olha, olha bem meu amor
                        D
No final da odisséia terrestre

             Em
Sou Adão e você... diz pra mim o que você será! 





Quer fazer uma correção nesta cifra?







    Comentários (0) Postar um Comentário

    Nenhum comentário encontrado. Seja o primeiro!