Cifra da música: Show Me The Meaning Of Being Lonely - Backstreet Boys

Esse cifra de Backstreet Boys já foi acessado por 965 pessoas.

Comente

A música Show Me The Meaning Of Being Lonely fez muito sucesso quando foi gravada por Backstreet Boys. Quer conhecer a letra dela? Veja a letra de Show Me The Meaning Of Being Lonely e cante.

Veja também o vídeo da música tocada.


Versão 1
--------

   Intro:
   F#m D E
   Show me the meaning of being lonely
   F#m-D-E
e||---------------9-7------------------------------
B||7-9-10--7-9-10-----10-9-7-----------------------
G||------------------------------------------------ 
D||------------------------------------------------
A||------------------------------------------------
E||------------------------------------------------
    *Corrigido por: Humberto S. C. Bianchi ([email protected])*    
   Verse 1:
   F#m D E
   So many words for the broken heart
   F#m D E
   It's hard to see in a crimson love
   E D C#
   So hard to breathe Walk with me, and maybe
   F#m D E
   Nights of light so soon become
   F#m D E
   Wild and free I could feel the sun
   E D C#
   Your every wish will be done They tell me...

   CHORUS:
   F#m D E
   Show me the meaning of being lonely
   F#m D E
   Is this the feeling I need to walk with
   A C# F#m
   Tell me why I can't be there where you are
   D E
   There's something missing in my heart

   *F#m-D-E*

   Verse 2: (chords: see verse 1)
   Life goes on as it never ends
   Eyes of stone observe the trends
   They never say forever gaze
   Guilty roads to an endless love
   There's no control
   Are you with me now
   Your every wish will be done
   They tell me

   CHORUS
   (same as before, except:)
   D E G#m
   There's something missing in my heart

   Bridge:
   G#m E
   There's nowhere to run
   F# G#m
   I have no place to go
   E F# B
   Surrender my heart, body and soul
   Eb
   How can it be you're asking me to feel
   G#m
   the things you never show

e||------------------------------------------------
B||7-9-10--7-9-10-10/12-9/10-7-9-10-10/12-11/12/11-13-12-11-10-9/10-8/9-7
G||------------------------------------------------ Riff2 By Zé's
D||------------------------------------------------
A||------------------------------------------------
E||------------------------------------------------


   E-F#m-G#m-E-F#m
   (Ooooh....)

   *G#m-E-F#-G#m-F#-E*

   E F# B Eb G#m
   You are missing in my heart
   E F# G#m
   Tell me why I can't be there where you are

   CHORUS:
   G#m E F#
   Show me the meaning of being lonely
   G#m E F#
   Is this the feeling I need to walk with
   B Eb G#m
   Tell me why I can't be there where you are
   E F# G#m
   There's something missing in my heart

Precisando de cifras peça no meu e-mail!
   [email protected] ou [email protected] ou 
[email protected]

Versão 2
---------
Backstreet Boys - Show me the meaning of being lonley
Por: Bruno carlos
Obs.: Taí os Riffs e Solo...  O resto da múscia é igual ao que já foi tirado

Riff 1

         F#m                               D               E
|-------|---------------------------------|---------9--7~~----------------|
|--7-9-|-10~~~~~~------------7---9---|-10~~~~----------10--9---7---|
|-------|---------------------------------|---------------------------------|
|-------|---------------------------------|---------------------------------|
|-------|---------------------------------|---------------------------------|
|-------|---------------------------------|---------------------------------|




Riff 2
         F#m                               D               E
|-------|---------------------------------|-----------9--7~~---5-7-5-4---|
|--7-9-|-10~~~~~--------------7---9--|-10~~~~----------------------7-|
|-------|---------------------------------|----------------------------------|
|-------|---------------------------------|----------------------------------|
|-------|---------------------------------|----------------------------------|
|-------|---------------------------------|----------------------------------|
                                                               * fazer hammeron e pulloff


Solo
            G#m                               E               F#
|---------||---------------------------------|---------11-9~~---------------|
|--9--11-||-12~~~~~~-----------9---11--|-12~~~~-------12--11--9------|
|---------||---------------------------------|---------------------------------|
|---------||---------------------------------|---------------------------------|
|---------||---------------------------------|---------------------------------|
|---------||---------------------------------|---------------------------------|

  G#m                               E               F#
|---------------------------------|---------11-9~~----9h11-11--|
|----------------------------9-11|-12~~~~------12--------------|
|------------------------11------|---------------------------------|
|---------------------------------|---------------------------------|
|---------------------------------|---------------------------------|
|---------------------------------|---------------------------------|

  B                                 D#
|-------------------------9-------|-----------------------------------------|
|-----------------------------12--|-11~~~~--------10-----h119-8--------|
|---------------------------------|-----------------------------------9-8---|
|---------------------------------|---------------------------------------11|
|---------------------------------|------------------------------------------|
|---------------------------------|------------------------------------------|

  G#m                               E               F#                 G#m
|---------------------------------|---------------------------------||-----
|---------------------------------|-----------------------12--11---||-9---
|------------------------------8--|-9--------------11--------------||-----
|-9---------------------9--11----|---------------------------------||-----
|---------------------------------|---------------------------------||-----
|---------------------------------|---------------------------------||-----

_____________________________________________________________


Quer fazer uma correção nesta cifra?







    Comentários (0) Postar um Comentário

    Nenhum comentário encontrado. Seja o primeiro!